Acordes de Guitarra » N »Los Nocheros » La chacarera del rancho (Tab)

La chacarera del rancho
Los Nocheros

Letras, Acordes y Tabs para Guitarra, Bajo y Ukulele

  • Am                             C
    Cuando chacareras comienzo a cantar
                  G7                  C
    ¡¿Cuál ha de ser?! ¡¿cuál ha de ser?!          [1]
                        E        Am
    Esta chacarera del rancho señor
    E                      Am
    ¡Claro que sí!, ¡claro si pues!
    
    
    Interludio:  Am   C   E   Am   Am-G*   C   E   Am
    
    
    Dentro del rancho colgado a un horcón
    Tengo un violín tengo un violín                  [1]
    Es de algarrobo también de mistol
    Hecho por mí hecho por mí.
    
    
    Interludio
    
  • Intro: LAm-LAm-MI7-LAm-LAm-LAm-MI7-LAm
    
    
    
                Am                   C
    Cuando chacareras comienzo a cantar
                  G7                 C
    ¡¿Cual ha de ser?! ¡¿cual ha de ser?!
            Am                C
    La chacarera del rancho señor
               E7              Am
    ¡claro que si!, ¡claro si pues!.
    
    
    
                Am                   C
    Dentro del rancho colgao a un horcon
               G7              C
    tengo un violín tengo un violín
           Am                     C
    
  • INTRO
    
    -----------------------------------------------------------------------------------------1ra
    -----------------------------------------------------------------------------------------
    ----------------2-1-4--2~0-------------------------------------------2-1-4-2~0-----------
    ------0-2~0---2------------2---2-3--3~22-0-----0-----------0-2~0---2-----------2---2-0-2-
    0-2-3-------3----------------3------------3-2---3---0-2-3-------3---------------3-------5ta
    
    
    -------------------1ra
    -------------------
    -------------------    BIS
    3-2-0-----0--------
    ------3-2---3-2-0--5ta
    
    
    SOLO
    
    -------------5-7-5--8-7-4--0---------------------5-4-3-4-7-5--8-7--4-2-4-5--1ra
    ------3-5~3----------------5-3-1---------3-5-4-5----------------------------
    2-4-5-------5-7----9-7--4---------2-4-5---------------------9-7--4--2-4-5--
    --------------------------6-3--2--------------------------------------------4ta
    
    DEDICO ESTA (TAB) A MI SOBRINO 'MATIAS'
  • e|------------------------------------------------|
    B|------------------------------------------------|
    G|------------2-1-4----21-------------------------|
    D|----0-20--2------------2---2-3----2-------------|
    A|023-----3----------------3----------5-3-2-5--3--|
    E|------------------------------------------------|
    
    e|------------------------------------------------|
    B|------------------------------------------------|
    G|------------2-1-4-21----------------------------|
    D|----0-20--2---------2---2---2-32-------0--------|
    A|023-----3-------------3----5-----5-3-2---3-2-0--|
    E|------------------------------------------------|
    
                                     C
    Cuando chacareras comienzo a cantar
                 G7                C
    ¿Cual ha de ser?, ¿Cual ha de ser?
            Am        G         C
    La chacarera del rancho, señor.
    
  • +
    ¡Colabora con nosotros!
    Envíanos tu versión de esta canción

Letra de La chacarera del rancho
Cuando chacareras comienzo a cantar
¡¿Cuál ha de ser?! ¡¿cuál ha de ser?! [1]
Esta chacarera del rancho señor
¡Claro que sí!, ¡claro si pues!
Dentro del rancho colgado a un horcón
Tengo un violín tengo un violín [1]
Es de algarrobo también de mistol
Hecho por mí hecho por mí.
Interludio
Algo medio chico mi rancho tal vez
Para los dos, para los dos [2]
Ya me estoy haciendo cerquita al salao
Uno mejor... uno mejor
Estribillo:
Cuando chacarera comienzo a cantar
Cual ha de ser cual ha de ser
Esta chacarera del rancho señor [1]
Claro que sí, claro si pues.
Yo li hecho al rancho un alero especial
Para bailar para cantar [1]
Para darme el gusto y allí vidalear
De navidad a carnaval.
Interludio
Un hornito Ibarro montero y fogón
Tengo además tengo además [1]
Y mi negra chura que sabe matear
Para que más para que más.
Interludio
Si alguna huanita pudiera tener
uy que feliz, uy que feliz [2]
Pero como dicen que Dios proveerá
Ya ha de venir... ya ha de venir.
Estribillo:
Cuando chacarera comienzo a cantar
Cual ha de ser cual ha de ser [1]
Esta chacarera del rancho señor
Claro que sí, claro si pues.




[La chacarera del rancho chords][La chacarera del rancho cifra]
© LaCuerda.net · aviso legal · privacidad · es · en · pt · contacto