Tablatura para Guitarra de Los Nocheros: Entre el cielo y la tierra
Conexión · Inscripción
Letras y Acordes
Pantalla Completa
Imprimir
Versión Texto
Añadir Favorito
Otras Versiones

Mostrar Diagramas
Desfile Automático
Manipular Acordes
Formato del Texto


Entre el cielo y la tierra(TAB)

Los Nocheros

calidad:
noch0113
AUTOR: Los Nocheros  corregir
ALBUM: desconocido
Enviado por facundo
1-------4--5--7--8--8-8-7--5-5---12--12-----
2--5--7----------------------------------10-
3-------------------------------------------
4-------------------------------------------
5-------------------------------------------
6-------------------------------------------


1------12--12--10--10--8--7------
2--10------------------------8---
3--------------------------------
4--------------------------------
5--------------------------------
6--------------------------------

1--5--8--6--5----------------------5---------
2--------------8---7---5---------------------
3------------------------5--6--8-----5-5-4--7
4--------------------------------------------
5--------------------------------------------
6--------------------------------------------

1-----------------------------------------12-13-12
2-----5--6--8-------------------------------------
3---------------7---5----4---4--5---7--9----------
4-------------------------------------------------
5-------------------------------------------------
6-------------------------------------------------


si hay algun error contactenme
Este fichero es trabajo propio de su transcriptor y representa su interpretación personal de la canción. El material contenido en esta página es
para exclusivo uso privado, por lo que se prohibe su reproducción o retransmisión, así como su uso para fines comerciales.

© LaCuerda.net · Aviso Legal · Privacidad