Acordes de Guitarra » N »Los Nocheros » Entre la tierra y el cielo (Tab)

Entre la tierra y el cielo
Los Nocheros

Letras, Acordes y Tabs para Guitarra, Bajo y Ukulele

  • Am                    Dm    E                    Am
      Yo siento que me provocas, aunque no quieras hacerlo.
    Am                   Dm   E                  Am
      Está grabado en tu boca, al rojo vivo el deseo.
     C                G   Dm                  E
      Y casi puedo tocarte, como una fruta madura,
     F                     Em    F                  E
      presiento que voy a amarte, más allá de la locura.
    
              Am                               Dm
      VOY A COMERTE EL CORAZÓN A BESOS, A RECORRER SIN LÍMITES TU CUERPO,
                 G                                      C                  E7
      Y POR EL SUELO NUESTRA ROPA, SUAVE, GOTA A GOTA, VOY A EMBORRACHARTE DE PASIÓN.
              Am                               Dm
      VOY A COMERTE EL CORAZÓN A BESOS, A RECORRER SIN LÍMITES TU CUERPO,
               G                                      C               E7
      VOY A DEJAR POR TUS RINCONES PÁJAROS Y FLORES, COMO UNA SEMILLA DE PASIÓN.
      Ahora te sueltas el pelo, y así descalza caminas,
      voy a morder el anzuelo, pues quiero lo que imaginas.
      Cuando se cae tu vestido como una flor por el suelo,
    
  •  Am7                Dm7   E7/4      E7        Am7
    Yo siento que me provocas aunque no quieras hacerlo
    Am7                Dm7  E7/4   E7         Am7
    Está grabado en tu boca al rojo vivo el deseo.
    C                 G  F               E7/4-E7
    Y casi puedo tocarte como una fruta madura
    F                     Em   F                E7/4  E7
    Presiento que voy a amarte más allá de la locura.
    
            Am7                            Dm7
    Voy a comerte el corazón a besos a recorrer sin límites tu cuerpo
             G
    Y por el suelo nuestra ropa suave gota a gota
    C                  E7/4  E7
    Voy a emborracharte de pasión
        Am7                                 Dm7
    Voy a comerte el corazón a besos a recorrer sin límites tu cuerpo
            G                                      C              E7/4   E7
    Voy a dejar por tus rincones pájaros y flores como una semilla de pasión
    
    
  • Hola. Soy Pablo. Acá mando este punteo que es espectacular.
    Espero que lo puedan tocar. Suerte!
    
    
    E|---------------7--8--8--7--------------12--12----------------
    B|-----7--9--10--------------10--10--10------------------------
    G|--9--------------------------------------------10--10--------
    D|-------------------------------------------------------------
    A|-------------------------------------------------------------
    E|-------------------------------------------------------------
    
    E|------12--12--12--10--10--8--7--7--8--10---------------------
    B|------------------------------------------8------------------
    G|--10---------------------------------------------------------
    D|-------------------------------------------------------------
    A|-------------------------------------------------------------
    E|-------------------------------------------------------------
    
    E|-----5--8--6--5--------------------5-------------------------
    B|--8--------------8--6--5--5--6--8----------------------------
    G|-
  • Holas!.. este solo nose si estara mejor ke el otro!..
    pero es mas facil de tocar... muchisimo mas facil ..y sinceramente..
    suena mejor!! sino fijensen.. token el otro y despues este..!..
    uds veran con cual se kedan.. no pierden nada en aprenderlo..
    son muy similares.. para mi.. suena perfecto este..
    spero ke lo disfruten!!
    Aguyante tucuman!!.. un saludo pa todos los wachos del mocho! ejee!! cya!
    
    Solo
    
    1|---------------8-10----8-8-7-----------12-12-12----------
    2|-------9-10-12----------------10~~--10-------------------
    3|--9-11------------------------------------------10~~-----
    4|---------------------------------------------------------
    5|---------------------------------------------------------
    6|---------------------------------------------------------
    
    1|--------12-12-12---10-10-8-7--7-8-10------
    2|-------------------------------------8~~--
    3|---10-------------------------------------
    4|------------------------------------------
    5|------------------------------------------
    6|------
  • E|---------------7--8--8--7--------------12--12----------------
    B|-----7--9--10--------------10--10--10------------------------
    G|--9--------------------------------------------10--10--------
    D|-------------------------------------------------------------
    A|-------------------------------------------------------------
    E|-------------------------------------------------------------
    
    E|------12--12--12--10--10--8--7--7--8--10---------------------
    B|------------------------------------------8------------------
    G|--10---------------------------------------------------------
    D|-------------------------------------------------------------
    A|-------------------------------------------------------------
    E|-------------------------------------------------------------
    
    E|-----5--8--6--5--------------------5-------------------------
    B|--8--------------8--6--5--5--6--8----------------------------
    G|--------------------------------------5--5-------------------
    D|-------------------------------------------------------------
    A|-------------------------------------------------------------
    E|-------------------------------------------------------------
    
  • +
    ¡Colabora con nosotros!
    Envíanos tu versión de esta canción

Letra de Entre la tierra y el cielo
Yo siento que me provocas, aunque no quieras hacerlo.
Está grabado en tu boca, al rojo vivo el deseo.
Y casi puedo tocarte, como una fruta madura,
presiento que voy a amarte, más allá de la locura.
VOY A COMERTE EL CORAZÓN A BESOS, A RECORRER SIN LÍMITES TU CUERPO,
Y POR EL SUELO NUESTRA ROPA, SUAVE, GOTA A GOTA, VOY A EMBORRACHARTE DE PASIÓN.
VOY A COMERTE EL CORAZÓN A BESOS, A RECORRER SIN LÍMITES TU CUERPO,
VOY A DEJAR POR TUS RINCONES PÁJAROS Y FLORES, COMO UNA SEMILLA DE PASIÓN.
Ahora te sueltas el pelo, y así descalza caminas,
voy a morder el anzuelo, pues quiero lo que imaginas.
Cuando se cae tu vestido como una flor por el suelo,
no existe nada prohibido entre la tierra y el cielo.
VOY A COMERTE...
De pasión...
VOY A COMERTE EL CORAZÓN A BESOS, A RECORRER SIN LÍMITES TU CUERPO,
Y POR EL SUELO NUESTRA ROPA, SUAVE, GOTA A GOTA, VOY A EMBORRACHARTE DE PASIÓN.
VOY A COMERTE EL CORAZÓN A BESOS, A RECORRER SIN LÍMITES TU CUERPO,
VOY A DEJAR POR TUS RINCONES PÁJAROS Y FLORES, COMO UNA SEMILLA DE PASIÓN.
Repite los dos últimos versos del estribillo, perdiéndose...




[Entre la tierra y el cielo chords][Entre la tierra y el cielo cifra]
© LaCuerda.net · aviso legal · privacidad · es · en · pt · contacto