Tablatura para Guitarra de Los Nocheros: Entre el cielo y la tierra
Conexión · Inscripción
Letras y Acordes
Pantalla Completa
Imprimir
Versión Texto
Añadir Favorito
Otras Versiones

Mostrar Diagramas
Desfile Automático
Manipular Acordes
Formato del Texto


Entre el cielo y la tierra(TAB)

Los Nocheros

calidad:
noch0115
AUTOR: Los Nocheros  corregir
ALBUM: desconocido
Enviado por lucas
1---------------------------------
2--------0--1--0-----3------------
3-----2-----------2---------------
4--2--------------------3---------
5---------------------------------
6---------------------------------


1---------------------------------
2-----------0--1-----0------------
3-----1--2--------0-----2---------
4--2------------------------------
5---------------------------------
6---------------------------------

1---------------------------------
2--------0--1--0------------------
3-----2-----------2--0------------
4--2--------------------3---------
5---------------------------------
6---------------------------------

1---------------------------------
2-----------0--1-----0------------
3-----1--2--------0-----2---------
4--2------------------------------
5---------------------------------
6---------------------------------

1-----------0--------0------------
2-----1--3-----3--1-----3---------
3--0------------------------------
4---------------------------------
5---------------------------------
6---------------------------------

1--------0--1--0-----1--0---------
2-----3-----------3---------------
3--0------------------------------
4---------------------------------
5---------------------------------
6---------------------------------

1--0--0---------------------------
2--------3--1--0--1--3------------
3-----------------------0---------
4---------------------------------
5---------------------------------
6---------------------------------

1---------------------------------
2--1--1--1--1--0-----1--0---------
3-----------------2---------------
4---------------------------------
5---------------------------------
6---------------------------------


 (ESTRIBILLO)
1--0--0--0--0---------------------
2--------------3--3--1--1--0--0---
3--------------------------------2
4---------------------------------
5---------------------------------
6---------------------------------

1--1--1--1--1--0--0-----------0---
2--------------------3--3--0-----3
3---------------------------------
4---------------------------------
5---------------------------------
6---------------------------------

1--1--1--1--1--0--0---------------
2--------------------3--1--0------
3---------------------------------
4---------------------------------
5---------------------------------
6---------------------------------

1--1--0--0------------------------
2----------3--1--0----------------
3---------------------------------
4---------------------------------
5---------------------------------
6---------------------------------

1--0--1--0--1--0--0-----0--1--0---
2--------------------3------------
3---------------------------------
4---------------------------------
5---------------------------------
6---------------------------------


El estribillo se repite dos veses y vuelve desde el principio
con la repeticion del estribillo.
Si tienen alguna duda consultenme, mi direccion es:
lucasviceconte92@msn.com
Este fichero es trabajo propio de su transcriptor y representa su interpretación personal de la canción. El material contenido en esta página es
para exclusivo uso privado, por lo que se prohibe su reproducción o retransmisión, así como su uso para fines comerciales.

© LaCuerda.net · Aviso Legal · Privacidad