Acordes de Guitarra » N »No Te Va Gustar » Tan Lejos (Tab)
  • Letra y Acordes
    SOL                 LAm
    Todos nos vemos buscando bien o mal
    DO                SOL
    Una salida en el cielo
    SOL                          LAm
    Adentro llueve y parece que nunca va a parar
    DO       SOL
    Y va a parar
    
    SOL                    LAm
    Una sonrisa se ve reflejada en un papel
    DO                SOL
    Y se te empañan los ojos
    SOL                          LAm
    Con esas caras diciendo que todo va a estar bien
    DO                SOL
    Y va a estar bien
    
    REm   FA   DO           SOL         LAm    DO     FA     SOL
    Cantando a pesar de las llamas      Lalala-lalala-lalala-laaa.
    
  • Letra y Acordes
    SOL              LAm
    Todos nos vemos buscando bien o mal
    DO                SOL
    Una salida en el cielo
    SOL                         LAm
    Adentro llueve y parece que nunca va a parar
    DO       SOL
    Y va a parar…
    
    
    Una sonrisa se ve reflejada en un papel
    Y se te empañan los ojos
    Con esas caras diciendo que todo va a estar bien
    Y va a estar bien…
    
    
    REm   FA   DO           SOL         LAm-DO-FA-SOL
    Cantando a pesar de las llamas…
    
    
    
  • Tab p/Bajo
    -Primera Estrofa sin bajo-
    
    Verso:
    Una sonrriza se ve reflejada en un papel y se te empañan los ojos..
    G|--------------------------------------------------------------------|
    D|--------------------------------------------------------------------|
    A|----------------------------------------3x----------------------3---|
    E|3x----------3-5x----------------------5--------------------------3x-|
    
    Con esas caras diciendo que todo va a estar bien y va a estar bieen..
    G|------------------------------------------------------------------------|
    D|------------------------------------------------------------------------|
    A|--------------------------------------------3x----------------------3---|
    E|-3x-----------3-5x------------------------5--------------------------3x-|
    
    
    Estribillo:
           Cantando a pesar de las llamas   lala lalala lalala lalaaa..
    G|--------------------------------------------------------------------|
    D|--------------------------------------------------------------------|
    A|-5x--
  • +
    ¡Colabora con nosotros!
    Envíanos tu versión de esta canción
  • Tutorial
    HD
    Como tocar Tan Lejos No te va Gustar en Guitarra (HD)
    Tutorial
    6:19

Letra de Tan Lejos
Todos nos vemos buscando bien o mal
Una salida en el cielo
Adentro llueve y parece que nunca va a parar
Y va a parar
Una sonrisa se ve reflejada en un papel
Y se te empañan los ojos
Con esas caras diciendo que todo va a estar bien
Y va a estar bien
Cantando a pesar de las llamas Lalala-lalala-lalala-laaa.
No quiero quedarme sentado
No quiero volver a tu lado
Creo me gusta así
Ya paso el tiempo y espero saber por que
Estando tan lejos no te quiero ver
Cantando a pesar de las llamas Lalala-lalala-lalala-laaa.
Gritando con todas las ganas Lalala-lalala-lalala-laaa.
No llores más, que la noche es larga
Ya no duele el frío que te trajo hasta acá
Ya no existe acá
No existe ese frío que te trajo
No quiero quedarme sentado
No quiero volver a tu lado
Creo me gusta así
Adentro llueve y parece que nunca va a parar
Y va a parar
Cantando a pesar de las llamas Lalala-lalala-lalala-laaa.
Gritando con todas las ganas Lalala-lalala-lalala-laaa.
Cantando a pesar de las llamas
Gritando con todas las ganas
Cantando... gritando...



© LaCuerda.net · aviso legal · privacidad · contacto