Acordes de Guitarra » N »No Te Va Gustar » Al vacío (Tab)

Al vacío
No Te Va Gustar

Letras, Acordes y Tabs para Guitarra, Bajo y Ukulele

  • SIm      F#m
      todo parece estar
    Em            D          F#
      queriendo cerrar una herida
    SIm         F#m
      lejos de abandonar
    Em          D       F#
      cerca de una despedida
    
    SIm          F#m
       no quiero más
    SIm        F#m
       verte pasar
    
    SIm        G                   F#  F#sus4
       solo me quiero sentar a esperar
    
    
    lo fueron a matar
    y lo dejaron con vida
    
  • SIm      F#m
      todo parece estar
    Em            D          F#
      queriendo cerrar una herida
    SIm         F#m
      lejos de abandonar
    Em          D       F#
      cerca de una despedida
    
    SIm          F#m
       no quiero más
    SIm        F#m
       verte pasar
    SIm        G                   F#  F#sus4
       solo me quiero sentar a esperar
    SIm      F#m
    lo fueron a matar
    Em     D          F#
    y lo dejaron con vida
    SIm      F#m
    
  • -------------------------------------------------
    -------------------------------------------------
    -----------12/11-----7*8-----------6/7/6---------
    ---11/9---------------------9--7-----------------     X2
    -------------------------------------------------
    -------------------------------------------------
    
    
    
    /-------------------------------------------------//
    /--------17--15--13--10/12------------------------//
    /----/15------------------------------------------//
    /-------------------------------------------------//
    /-------------------------------------------------//
    /-------------------------------------------------//
    
    
    
    
    
    
  • Intro: SIm F#m Em D F# (X2)
    
    E|-----------------|-----------------3-2-|
    B|-----------------|--7-7---7-7--3-0-----|
    G|-7/9/7-----6/7/6-|-4-4---4-4-----------|
    D|-------9-7-------|---------------------|  X2
    A|-----------------|---------------------|
    E|-----------------|---------------------|
    
    E|---10--9--7-6/7-|
    B|----------------|
    G|-11---9--7------|
    D|----------------|
    A|----------------|
    E|----------------|
    
    SIm    F#m
    Todo parece estar
    Em            D         F#
    queriendo cerrar una herida
    
  • /------------------------------------------------
    /------------------------------------------------
    /--7*8-----6/7/6------11--11--------11--11-----
    /------9-7----------9-------------9------------
    /------------------------------------------------
    /------------------------------------------------
    
    
    
    --------------------------------------------------------------
    --------------------------------------------------------------
    -----------12/11-----7*8-----------6/7/6----11--11-----11--11-
    ---11/9---------------------9--7----------9---------9---------
    --------------------------------------------------------------
    --------------------------------------------------------------
    
    
    
    /-------------------------------------------------//
    /--------15--14--12--10/12------------------------//
    
  • intro  y verso
    
    G|---------------------------------------------|
    D|----------44444444-4-3-22222222--------------|
    A|-22222222------------------------5555-44-5---|
    E|-------------------------------------------5-|
    
    E|---------------------------------------------|
    D|----------44444444-4-3-22222222--------------|
    A|-22222222-----------------------5555---------|
    E|-------------------------------------222-0-2-|
    
    No quiero mas , verte pasar...
    
    G|------------------------|
    D|------------------------|
    A|-22222222---------------|
    E|---------222222-0-2-4---|(x3)
    
    Solo me quiero sentar a esperar...
    
    G|--------------------------|
    D|-5555555-5/4-4444444444---|
    A|--------------------------|
    E|--------------------------|
    
    Estribillo
    
    G|---------------------------------------------------------------|
    D|---------------------------------------------------------------|
    A|-777-00-555-----777----99999999-777----2222222-----------------|
    E|------------33------33--------------55---------33333333-222222-|
    
    Ale
  • +
    ¡Colabora con nosotros!
    Envíanos tu versión de esta canción
  • Tutorial
    HD
    Como Tocar Al Vacio - No Te Va Gustar (NTVG)
    - Leccion de Guitarra Electrica y Acustica
    17:57
  • Tutorial
    COMO TOCAR AL VACIÓ DE NO TE VA A GUSTAR PARTE 1 (INTRO)
    1:51
  • Tutorial
    Como tocar Al vacío - NTVG (intro by Nicoplos)
    1:48

Letra de Al vacío
todo parece estar
queriendo cerrar una herida
lejos de abandonar
cerca de una despedida
no quiero más
verte pasar
lo fueron a matar
y lo dejaron con vida
sin sospechar
que todavía respira
no quiero más
verte pasar
ESTRIBILLO
que saltes al vacío y que no vuelvas nunca
y que toda tu vida te mate la culpa de haberme robado una parte del alma
y es lo que a vos te hace falta
alejarte de acá
vos querés enseñar
pero te faltan ideas
vos sabés señalar
pero esperá que te vean
no quiero más
verte pasar
ESTRIBILLO
que saltes al vacío y que no vuelvas nunca
y que toda tu vida te mate la culpa de haberme robado una parte del alma
y es lo que a vos te hace falta
que saltes al vacío y que no vuelvas nunca
y que toda tu vida te mate la culpa de haberme robado una parte del alma
y es lo que a vos te hace falta
alejarte de acá
O O O O O O
| | | | | | 1
************ 2
| | | | | | 3
| X X X | | 4
| | | | | | 5




[Al vacío chords][Al vacío cifra]
© LaCuerda.net · aviso legal · privacidad · es · en · pt · contacto