Acordes de Guitarra » M »Música de TV » Saint seiya - ikki theme (Tab)

Saint seiya - ikki theme
Música de TV

Letras, Acordes y Tabs para Guitarra, Bajo y Ukulele

  • Bueno esta es mi primera transcripcion, esta es la mejor cancion
    que le ponen a Ikki, es muy buena suena igual que la version
    original que esta en Piano, asi que cualquier duda ahi esta mi
    correo.
    
    IKKI THEME
    
    e 12-14-17-15-14-15--------12-14-15-12-19-22-20--------17-19-20-19--<>
    b ------------------12----------------------------------------------<>
    g ------------------------------------------------------------------<>
    d ------------------------------------------------------------------<>
    a ------------------------------------------------------------------<>
    e ------------------------------------------------------------------<>
    
    e -17-12-15------17-15-14-------14-15-14-------14-12-----<>
    b----------------------------------------12-12-----------<>
    g -------------------------------------------------------<>
    d -------------------------------------------------------<>
    a -------------------------------------------------------<&g
  • Shiryu & Ikki Theme
    La interpretacion de esta rola la pueden chekar en mi video
    
    http://mx.youtube.com/watch?v=XW1xWdD0a5g
    
    
    
    e|--0-2-5-3-2-3-------0-----0-3-0-7-10-8--5------|
    B|------—-------0----0-0---0-------------5-5-----|
    G|------------------0---0-0-------------5---5----|
    D|-----------------2-------------------------7---|
    A|----------------2---------------------------7--|
    E|--------------0--------0-------------5---------|
    
    
    e|----5-7-8-7-5-0-3--------5s3-3--3-2--2--------|
    B|---5----—----------0--5--------1----1---------|
    G|--5---------------0-0--0------0----0----------|
    D|----------------------------------------------|
    A|-----------------------------2----------------|
    E|-5--------------0-----------------------------|
    
    
    e|------5---2----------0-----0----12-arm-----------|
    B|-----2---2—-----4---------0-0---12-arm-----------|
    G|--2-2---2----(2)---------0---0—-12-arm-----------|
    D|------------4-----------2------------------------|
    A|-----------------------2----------------------
  • +
    ¡Colabora con nosotros!
    Envíanos tu versión de esta canción
  • Tutorial
    HD
    TUTORIAL - Remember sadness - Saint Seiya + Guitar TABS
    2:04






[Saint seiya - ikki theme chords][Saint seiya - ikki theme cifra]
© LaCuerda.net · aviso legal · privacidad · es · en · pt · contacto