Acordes de Guitarra » M »Música de TV » Dragon ball z - cha-la-head-cha-la (Tab)

Dragon ball z - cha-la-head-cha-la
Música de TV

Letras, Acordes y Tabs para Guitarra, Bajo y Ukulele

  • E - D
    E - D - C
    
    VERSO)
    E                            D
     El cielo resplandece a mi alrededor (alrededor)
         C               G                       B7
    al volar destellos brillan en las nubes sin fin,
      E                                 D
    con libertad puedes cruzar hoy el cielo azul (el cielo azul)
           C                      G            B7
    la verdad huye a un golpe de pronto en tí,
    
    PRECORO)
    C#m            B           E
    como si un volcán hiciera una erupción,
    D
    derrite un gran glaciar,
    C#m                             B
    podrás ver de cerca un gran dragón.
    
  • e--7------------7-----------7-----------7---------
    B----7--------7---7-------7---7-------7---7-------
    G------9----9-------9---9-------9---9-------9-----   (¡Rapido!)
    D--------9------------9-----------9-----------9---
    
    E - D - C   (Sigan LA musica de intro con esto luego del arpegio)
    
    
    E                            D
    El cielo resplandece a mi alrededor (alrededor)
         C               G                       B7
    al volar destellos brillan en las nubes sin fin,
      E                                 D
    con libertad puedes cruzar hoy el cielo azul (el cielo azul)
           C                      G            B7
    la verdad huye a un golpe de pronto en tí,
    
    C#m            B           E
    como si un volcán hiciera una erupción,
    D
    
  • e--7------------7-----------7-----------7---------
    B----7--------7---7-------7---7-------7---7-------
    G------9----9-------9---9-------9---9-------9-----   (¡Rapido!)
    D--------9------------9-----------9-----------9---
    
    E - D - C   (Sigan LA musica de intro con esto luego del arpegio)
    
    
    E                            D
    El cielo resplandece a mi alrededor (alrededor)
         C               G                       B7
    al volar destellos brillan en las nubes sin fin,
      E                                 D
    con libertad puedes cruzar hoy el cielo azul (el cielo azul)
           C                      G            B7
    la verdad huye a un golpe de pronto en tí,
    
    C#m            B           Aadd9    E
    como si un volcán hiciera una erupción,      (el Aadd9 en su cuarta version)
    D
    
  • E|---------------------0-|--------0---------|---------------------|
    B|-----------------------|------------------|---------------------|
    G|--2-1---4-2-1---4-2----|--4-4-2-------0-2-|-4-5-----5-5-4-2-0-4-|
    D|------2-------2--------|----------2-4-----|---------------------|
    A|-----------------------|------------------|---------------------|
    E|-----------------------|------------------|---------------------|
    
    
    E|-------------------|
    B|-------------------|
    G|-2-1---4-2-1-------|
    D|-----2-------2-----|
    A|-------------------|
    E|-------------------|
    
    
    
    E|-------0-----0-----|---------------------|-------------------|
    B|-------------------|---------------------|-2-----2-----------|
    G|-4-4-2---4-2-------|-0-2-4-5-----5-4-2-4-|---1-1---4-2-1---2-|
    
  • e|--5-4---5-4---4-4--2-2--/3----|
    B|------5-----5-----------------|
    G|------------------------------|
    D|------------------------------|
    A|------------------------------|
    E|------------------------------|
    
    e|--------------------------|------------------------------|
    B|--------0----0--0-0---/5--|-------------1-3-3-1-1--------|
    G|--2-1-----2-1-------------|------0--2-4-----------4-2-0--|
    D|------2-------------------|--2-4-------------------------|
    A|--------------------------|------------------------------|
    E|--------------------------|------------------------------|
    
    e|--------------------------|------------------------------|
    B|--------0----0--0-0---/5--|-------------1-3-1------------|
    G|--2-1-----2-1-------------|------0--2-4-------4-4-4------|
    D|------2-------------------|--2-4-------------------------|
    A|--------------------------|------------------------------|
    E|--------------------------|------------------------------|
    
  • +
    ¡Colabora con nosotros!
    Envíanos tu versión de esta canción

Letra de Dragon ball z - cha-la-head-cha-la
VERSO)
El cielo resplandece a mi alrededor (alrededor)
al volar destellos brillan en las nubes sin fin,
con libertad puedes cruzar hoy el cielo azul (el cielo azul)
la verdad huye a un golpe de pronto en tí,
PRECORO)
como si un volcán hiciera una erupción,
derrite un gran glaciar,
podrás ver de cerca un gran dragón.
Cha-la-head-Cha-la,
no importa lo que suceda,
siempre el ánimo mantendré,
Cha-la-Head-Cha-la,
vibrante mi corazón siente emoción,
haré una Genki-Dama
El cielo voy cruzando siempre con valor (con valor)
miraré inmensos montes que parecen sin fin
un paraíso oculto descubriré (descubriré)
con amor, por siempre y lo cuidare
PRECORO)
no hay razón para angustiado estar
porque una sorpresa abra..
y voy a encontrarla en algún lugar
Cha-la-head-Cha-la,
no importa lo que suceda,
siempre el ánimo mantendré,
Cha-la-Head-Cha-la,
vibrante mi corazón siente emoción,
haré una Genki-Dama
Cha-la-Head-Cha-la,
no pienses nada sólo escucha, sueños hay en tu corazón,
Cha-la-Head-Cha-la,
no importa lo que suceda,
sonreiré el día de hoy.
FINAL)




[Dragon ball z - cha-la-head-cha-la chords][Dragon ball z - cha-la-head-cha-la cifra]
© LaCuerda.net · aviso legal · privacidad · es · en · pt · contacto