Acordes de Guitarra » M »Música de TV » Pucca (Tab)

Pucca
Música de TV

Letras, Acordes y Tabs para Guitarra, Bajo y Ukulele

  • ESTA CANCION ES MUY FACIL NADA MAS QUE FALTA LA PARTE DONDE DICE
    PUPUPUCA PUPUPUPUCA
    
    E----------------------------------------------------
    B-12------------------------------------12------12---
    G---12--12-12-12-10-12---12-12-12-10-12---12-10---10-
    D----------------------------------------------------
    A----------------------------------------------------
    E----------------------------------------------------
    
    E----------------------------------------------------
    B----------------------------------------------------
    G---10-10-10-12-10-10-10-12-10-11-12-----------------
    D----------------------------------------------------
    A----------------------------------------------------
    E----------------------------------------------------
    
    E---------------------------------------------------
    B----13 -13--11-10--8--10--11-----------------------
    G---------------------------------------------------
    D---------------------------------------------------
    A---------------------------------------------------
  • refacil una d mis series favoritas.... comen fideos...
    lo busco lo beso etc etc jaja aca va la cancion completa
    
    Coro
    
    g|---------------5|
    d|-------5--6-7--3|(x8)
    a|-5--8--3--4-5---|
    E|-3--6-----------|
    Pucca quiere a Garu
    Divertido amor
    Comen fideos
    Lo buscó, lo besó
    PAM PAM PAM!!
    
    
    Intermedio
    
    g|---------------------|
    d|---------------------|
    a|--------5-5--5-4-4--4| (x4)
    E|-3-3--3--------------|
    pupupupupuuu pupupupupuu cca dulce amor pu PUU!!!
    pupupupupuuu pupupupupuu cca dulce amor pu pu
    
    (coro)
    
    Otro
    
    g|-----------|
    d|---5--6-7--|
    a|---3--4-5--|Fin
    E|-----------|
    Pam Pam Pam!!!
    
    Salu2
    >Juanito
    
    v-lX t /->o
  • G|---------------------------------------------------|
    D|---------------------------------------------------|
    A|-------------------------15-15-15-15---------------|
    E|--17-14---14-14--12-14-----------------14/13/14----|
    
    
    G|---------------------------------------------------------|
    D|----------------------------------------------15-16-17---|
    A|----------------------15----------14---------------------|
    E|--17-14---12-17-14--------13-15------12-14---------------|
    
    
    G|----------------------------------------------------------|
    D|----------------------------------------------------------|
    A|--------------------------------------15-15------13-------|
    E|-15--13-13-13-14-15--13-13-13-14-15----------13------15---|
    
    
    G|----------------------------------------------------------|
    D|----------------------------------------------------------|
    A|--------------------------------------15-15------13-13----|
    E|-15--13-13-13-14-15--13-13-13-14-15----------13-----------|
    
    
    G|------------------------------
  • +
    ¡Colabora con nosotros!
    Envíanos tu versión de esta canción






[Pucca chords][Pucca cifra]
© LaCuerda.net · aviso legal · privacidad · es · en · pt · contacto