Acordes de Guitarra » M »Música de TV » Naruto opening 3 (Tab)

Naruto opening 3
Música de TV

Letras, Acordes y Tabs para Guitarra, Bajo y Ukulele

  • C    LAm
    ASÍ QUE CONVIERTE TU TRISTEZA EN BONDAD
    E      Em
    PORQUE LA FUERZA ESTARA EN TI
    A     C
    PERDERE EL CAMINO PERO COMIENZALO
    G
    UNA VEZ MAS
    A   LAm
    SI QUIERES RESPONDER A LAS EXPECTATIVAS DE ALGUIEN
    E    Fm
    Y SER APRECIADO POR ELLO
    Bm  F
    SI ACTUAS COMO NO ERES REALMENTE
    Dm   B7
    ¿TU SONRISA SERA SIEMPRE SINCERA?
    Bm       B
    DESPIERTO HABIENDO VISTO SOLO EL PRINCIPIO DE MI SUEÑO
    Dm   E
    PERO ALGÚN DÍA CON MIS BRAZOS LO CONSEGUIRE
    
  •       D E F#m         D  E  F#m
    Habataitara    modorenai to itte
           D  E  F#m
    Mezashita no wa
         D   E   F#m
    aoi aoi ano sora.
    
    (El resto es con rasgueo y las mismas notas)
    
    Kanashimi wa mada oboerarezu
    setsunasa wa ima tsukami hajimeta.
    Anata e to idaku kono kanjou mo
    ima kotoba ni kawatteku.
    Michi naru sekai no yume kara mezamete
    kono hane wo hiroge tobi datsu.
    Habataitara modorenai to itte
    Mezashita no wa
    aoi aoi ano sora.
    Tsuki nuketara mitsukaru to shitte.
    Furikiru hodo
    
  • Aqui yo de nuevo
    ps
    esta es la de
    Blue bird
    op 3 de NS
    y
    ps
    esta muy bien
    y
    si la tocan con el
    distorcionador
    suena mejor
    ps
    alguna duda
    escribanme a
    pxndx1533@hotmail.com
    ps
    ahi va
    
    e|----2---4---5---4---2-------2---4---5---5---7---5---7---9------|
    B|-2----------------------2--------------------------------------|
    G|---------------------------------------------------------------|
    D|---------------------------------------------------------------|
    A|---------------------------------------------------------------|
    E|---------------------------------------------------------------|
    
    
       |   Habatai-ta-ra   |    |     modorenai to ite  |
    
    e|----2---4---5---4---2----2---9---7---2---9---5---0---0---2---2-|
    B|-2-------------------------------------------------------------|
    G|---------------------------------------------------------------|
    D|---------------------------------------------------------------|
    A|---------------------------------------------------------------|
    E|---------------------
  • +
    ¡Colabora con nosotros!
    Envíanos tu versión de esta canción

Letra de Naruto opening 3
ASÍ QUE CONVIERTE TU TRISTEZA EN BONDAD
PORQUE LA FUERZA ESTARA EN TI
PERDERE EL CAMINO PERO COMIENZALO
UNA VEZ MAS
SI QUIERES RESPONDER A LAS EXPECTATIVAS DE ALGUIEN
Y SER APRECIADO POR ELLO
SI ACTUAS COMO NO ERES REALMENTE
¿TU SONRISA SERA SIEMPRE SINCERA?
DESPIERTO HABIENDO VISTO SOLO EL PRINCIPIO DE MI SUEÑO
PERO ALGÚN DÍA CON MIS BRAZOS LO CONSEGUIRE
ASÍ QUE LAS COSAS IMPORTANTE SIEMPRE SON
LAS INMATERIALES
LAS GANES LAS PIERDAS NO TE DAS CUENTA
ASÍ QUE CONVIERTE TU TRISTEZA EN BONDAD
PORQUE LA FUERZA ESTARA EN TI
PERDERE EL CAMINO PERO COMIENZALO
UNA VEZ MAS




[Naruto opening 3 chords][Naruto opening 3 cifra]
© LaCuerda.net · aviso legal · privacidad · es · en · pt · contacto