Acordes de Guitarra » M »Música de TV » Dragon Ball GT - dan dan kokoro hikareteku (Tab)

Dragon Ball GT - dan dan kokoro hikareteku
Música de TV

Letras, Acordes y Tabs para Guitarra, Bajo y Ukulele

  • C                 G
     Tu sonrisa tan resplandeciente
     Am              Em     E7
     A mi corazón deja encantado
     F           C Am
     Ven toma mi mano
        A#               G            G#-A#-C
     Para huir de esta terrible oscuridad.
    
    
     Fm                    A#            Gm
     En el instante en que te volví a encontrar
                      Cm                Fm
     Mi mente trajo a mí aquel hermoso lugar
                    G7             Cm         C7
     Que cuando era niño fue tan valioso para mi.
    
              G#                 A#              Gm
     Quiero saber si acaso tú conmigo quieres bailar
                  Cm           Fm
    
  • Bb = A#
    Intro: C
    
    
    C                 G          Am            Em
    Poco a poco me cautiva tu sonrisa, toma mi mano y vamos
    
    F              Em Am    Dm          G                 G#    A# C
        A salir de LA   infinita obscuridad, venciendo al mal...
    
    
    Fm           Bb          Gm                   Cm           Fm
       Cuando de nuevo yo te vi , volando como un ave en mi jardín,
              G           Cm      D#       G#                           Gm
    recordé lugares echos para sooñar,la niñez a vuelto a mi mente otra vez,
                  Cm        Fm     G              Cm       D#
    como un sueño echo realidad bailabas con migo uuuuuuna más...
    
    
            G#                                 Gm
    
  • DAN DAN kokoro hikareteku
    
    
    --3-3-----3-5-3------------------------------------|
    ------5-6-------6-5----5-5-----5-6-5---------------|
    ---------------------7-----5-7------7-5-4-2--------|
    ---------------------------------------------------|
    ---------------------------------------------------|
    ---------------------------------------------------|
    
    -----5-3-------------------------------------------|
    -----------3-5-6-5-3---5--1-0-1--------------------|
    -2-5-----5-----------5-----------------------------|
    ---------------------------------------------------|
    ---------------------------------------------------|
    ---------------------------------------------------|
    
    parte del medio
    ---8-8-8-8-8-6-4-6-8-6--6-6-6-6-6-4-3-4-6-4--------|
    -1-------------------------------------------------|
    ---------------------------------------------------|
    ---------------------------------------------------|
    ---------------------------------------------------|
    ---------------------------------------------------|
    
  • Dragon ball GT – Toma mi mano (requinto)
    aki esta rola la afinacion es la normal weno ai nox vermox
    
    Primera Parte
    
    1.-3-3----3-5-3------------------------------------5-3-------------------
    2.-----5-6-------6-5--5-5-----5-6-5---------------------3-5-6-5-3---5-6-3
    3.------------------ 7-----5-7-------7-5-4-2-2-5-------5-----------5-----
    4.----------------------------------------------------------------------
    5.-----------------------------------------------------------------------
    6.-----------------------------------------------------------------------
    
    Segunda Parte
    
    1.-3-3----3-5-3------------------------------------5-3---------------------
    2.-----5-6-------6-5--5-5-----5-6-5---------------------3-5-6-5-3---3-1-0-1
    3.-------------------7----5-7-------7-5-4-2-2-5--------5----------5--------
    4.-------------------------------------------------------------------------
    5.-------------------------------------------------------------------------
    6.------------------------------------------
  • E------------5-------------------------------------------5-3-------------------------
    h-8-8--5-6-8---8--6-5-----5-5------5-6-5-------------------------3-5-6-5-3---5-6-5-3-
    5----------------------7-------5-7--------7-5--4--2-2-5-------5------------5---------
    d------------------------------------------------------------------------------------
    a------------------------------------------------------------------------------------
    e------------------------------------------------------------------------------------
    
    E------------5-------------------------------------------5-3-------------------------
    h-8-8--5-6-8---8--6-5-----5-5------5-6-5-------------------------3-5-6-5-3---3--1-0-1
    5----------------------7-------5-7--------7-5--4--2-2-5-------5------------5---------
    d------------------------------------------------------------------------------------
    a------------------------------------------------------------------------------------
    e----------------------------------------
  • esta cancion s para la mujer mas especial q e conocido, s prciosisima
    
    6 6 5 -5  6  -6 6  -5   5   -4
    TU SONRISA TAN RESPLANDESIENTE
    
    5 5 4 -4  5  -5 5  -4  4 -3
    A MI CORAZON DEJA ENCANTADO
    
    -3-3  4 -5  5  4      4  -4  5  4  3  4    -5 -4 -3   4
    VEN TOMA MI MANO     PARA UIR DE ESTA TERRIBLE OCURIDAD
    
    5  5   5 5  5     5  5  -4 4  -4    55
    EN EL INSTANTE EN QUE TE VOLVI A ENCONTRAR
    
    5   55    55    5  5   -4 4 -4     55
    MI MENTE TRAJOP A MI AQUEL HERMOSO LUGAR
    
     5   5 5    5   5 5  -4 4 4  444  4   -4   5
    QUE CUANDO ERA NIÑO  FUE TAN VALIOSO PARA MI
    
     6 6    6 6   -5  5 5  5   5 5 5 -4 4 -4      55
    QUIERO SAVER, SI ACASO TU CONMIGO QUIERES VAILAR
    
    -5 5   5   5  5 5 -4  4 4 4
    SI ME DAS TU MANO TE LLEVARE
    
     4   5  5 5    -5 6 6   6  6  -6   5  5
    POR UN CAMINO CUBIERTO DE LUZ Y OCURIDAD
    
     5 -5   6 6     6 6   -6  6  -6  6 6  6   6 6 6
    TALVEZ SIGAS PENSANDO EN EL NO PUEDO YO SABERLO
    
    6 -6  5 5   5  5  5   -5  6 6  6 6  6   5
    PERO SI TE ENTINENDO QUE AMOR NECESITAS TU
    
    -3 3  3  3  4 4  4 
  • Esta Es Una Transcripcion Que Saque De Oido Y Ayudado Con Mi Guitarra
    Creo Que Tiene Unos Pequeños Errores Al Final...
    
    
    Armonica En G
    
    
    6-6-5-(5)-6-(6)-6-(5)-5-(4)
    5-5-4-(4)-5-(5)-5-(4)-4-(3)
    
    (2)-(2)-4-(6)-6-4
    (4)-5-(5)-5-(4)-4-5-(5)-(4)
    
    
    
    
    6-6-5-(5)-6-(6)-6-(5)-5-(4)
    5-5-4-(4)-5-(5)-5-(4)-4-(3)
    
    (2)-(2)-4-(6)-6-4
    (4)-5-(5)-5-4-(4)-(1)-2-(1)
  • +
    ¡Colabora con nosotros!
    Envíanos tu versión de esta canción

Letra de Dragon Ball GT - dan dan kokoro hikareteku
Tu sonrisa tan resplandeciente
A mi corazón deja encantado
Ven toma mi mano
Para huir de esta terrible oscuridad.
En el instante en que te volví a encontrar
Mi mente trajo a mí aquel hermoso lugar
Que cuando era niño fue tan valioso para mi.
Quiero saber si acaso tú conmigo quieres bailar
Si me das tu mano te llevare
Por un camino cubierto de luz y oscuridad,
Tal vez sigues pensando en el no puedo yo saberlo
Pero se que entiendo que amor necesitas tu
Y el valor para pelear, en mi lo hallaras.
Mi corazón encantado vibra
Por el polvo de esperanza y magia
Del universo que ambicionan todos poseer.
Voy a amarte para toda la vida
No me importa si aun no te intereso
Ven toma mi mano para huir de esta infinita oscuridad.




[Dragon Ball GT - dan dan kokoro hikareteku chords][Dragon Ball GT - dan dan kokoro hikareteku cifra]
© LaCuerda.net · aviso legal · privacidad · es · en · pt · contacto