Acordes de Guitarra » M »Música de TV » Digimon - mariposa opening (Tab)

Digimon - mariposa opening
Música de TV

Letras, Acordes y Tabs para Guitarra, Bajo y Ukulele

  •        MI  DO-LA-SI
           MI  DO-LA-SI
    
    
        MI     RE             MI    RE
    E---------------------------------------------
    B---9-9997---7---10-------9-9997---7----------
    G----------9---------------------9-----7------
        MI      RE            MI       DO-SI-LA
    E-----------------------------------7---------
    B---9-9997---7---10-------9-9997------10------
    G-7---------9--------------------9-------9----
    
    
       MI
    Yo solamente quiero amarte
      SOL#m
    y todo mi calor brindarte
                LA
    te haré olvidar
    
  • E)-4|-4^-4|-4^-2|-0|-2|-|x2
    B)-5|-5|-5|-5|-3|-2|-3|-|
    G)-4v-4|-4v-4|-2v-2v-2v-|
    D)----------------------|
    A)----------------------|
    E)----------------------|
    
    E)----------------------------------|x2
    B)-7/9-9-9-7---7-10-7/9-9-9-7---7---|
    G)-----------9----------------9---7-|
    D)----------------------------------|
    A)----------------------------------|
    E)----------------------------------|
    
    E)------------------------------------------------------------------|x2
    B)-----------------------------------4------------------------------|
    G)---4-4---4---6-4-------4-4---4---6--------------------------------|
    D)-6-----6---6-----4-4p6-----6---6-----6-4-6-4--------5-4-5-7-5-4---|
    A)---------------------------------------------7-4-4-7------------7-|
    E)------------------------------------------------------------------|
    
  • +
    ¡Colabora con nosotros!
    Envíanos tu versión de esta canción

Letra de Digimon - mariposa opening
Yo solamente quiero amarte
y todo mi calor brindarte
te haré olvidar
esas penas que te hacen mal
h: notas ligadas
Hay que dar el sentimiento
y en cada momento vivirlo
te haré olvidar
esas penas que te hacen mal
Pre-coro:
Con el amor-o-o-o-or
se puede siempre alcanzar lo mejor
Con el amor-o-o-o-or
los sueños que tengas se van a cumpliiiir.
[E--4h5-4h5-7-]1º cuerda
Si tú lo deseas puedes volar
sólo tienes que confiar mucho en tí y seguir
puedes contar conmigo te doy todo mi apoyo
Si tú lo deseas puedes volar
si tú quieres el cielo alcanzar
y las estrellas tocar
Di-gi-mon.
Fin:




[Digimon - mariposa opening chords][Digimon - mariposa opening cifra]
© LaCuerda.net · aviso legal · privacidad · es · en · pt · contacto