Acordes de Guitarra » M »Los Mirlos » Poder Verde (Tab)

Poder Verde
Los Mirlos

Letras, Acordes y Tabs para Guitarra, Bajo y Ukulele

  • Hola q tal, soy Lualanmi, y aquí les traigo
    algo de Los Mirlos, no es mucho, pero en algo debe de servirles.
    Es que no me dio tiempo para sacar los acordes.
    Cualquier me la hacen llegar a Youtube:
    
    Salu2
    
    
    
    
    
    1|--10h11p10-----10h11p10-----...-------10-----------|
    2|----------11------------11------------11-----------|
    3|---------------------------------------------------|
    4|---------------------------------------------------|
    5|---------------------------------------------------|
    6|---------------------------------------------------|
    
    
    
    1|10-.-9---------------------------------------------------------------|
    2|13b.---9.-14--------11-13-14.-13h14p13--11h13p11-11-14p13-11-11b-...-|
    3|-------------13.-/13-------------------------------------------------|
    4|---------------------------------------------------------------------|
    5|---------------------------------------------------------------------|
    6|---------------------------------------------------------------------|
    
    
    
    1|-----10-12-13-
  • +
    ¡Colabora con nosotros!
    Envíanos tu versión de esta canción






[Poder Verde chords][Poder Verde cifra]
© LaCuerda.net · aviso legal · privacidad · es · en · pt · contacto