Acordes de Guitarra » M »Los Mirlos » La danza de los mirlos (Tab)

La danza de los mirlos
Los Mirlos

Letras, Acordes y Tabs para Guitarra, Bajo y Ukulele

  • Hola como están todo ustedes, soy Lualanmi(Luis Anto)
    y bueno, otra vez, como siempre subiendo tabs a esta
    gran web.
    
    Cualquier duda me la hacen llegar a mi facebook
    
    
    Saludos para mi amigos del alma en quien confío a ciegas:
    
    
    Manuel C., Elver C., David C., Jhon M., Manfredo, Germán C.,
    Jhonny, Yerson, Marylin, Fiorela Stefany, Raquel,Carol
    Alisson, Sara, Mercedes, Saskya, Israel, Franklin, Raúl,
    Pedro y su enamorada, Videl, Midel, Yordan, Alan, Mario P.,
    etc etc,
    
    
    hay más, pero es para la proxima XD
    
    
    
    
    Chulucanas-Piura-Perú.........
    
    
    lacuerda, la mejor web d Guitar y acordes
    ________________________________
    Aki dejo un video como ejemplo:
    
    
    
    http://www.youtube.com/watch?v=O0Aj5ohTRyo
    
    
    
    Damas Gratis
    
    1|-------------------------------------
    2|-------------------------------------
    3|-------------------------------------
    4|-------------0h2--2-2-2-2---0h2p0----
    5|--0-0-0-0-3---------------2----------
    6|-------------------------------------
    
    
    1|-----------------------------------
  • macerathy@yahoo.com.ar el más santafesino de LACUERDA.NET
    
    
    
    |--------------------------------|
    |--------------------------------|
    |--------------------------------|
    |-----------0h-2-2-2-2---0-------|
    |-0-0-0-0-3-----------2----------|
    |--------------------------------| x 4
    
    
    |--------0-0-0-0h-3--------------|
    |-1---1------------0-3-----------|
    |---2------------------2---------|
    |--------------------------------|
    |--------------------------------|
    |--------------------------------| x 2
    
    
    
    |--------0-3-2-1-0----------------|
    |--1---1-----------3-1-0-3-1-0----|
    |----2-------------------------2--|
    |---------------------------------|
    |---------------------------------|
    |---------------------------------| x 3
    
    
    |--------------------------------|
    |--------------------------------|
    |--------------------------------|
    |-----------0h-2-2-2-2---0-------|
    |-0-0-0-0-3-----------2----------|
    |--------------------------------|
    
    
    |--------0-0-0-0h-3--------------|
    |-1---1------------0-3-----------|
    |
  • |--------------------------------|
    |--------------------------------|
    |--------------------------------|
    |-----------0h-2-2-2-2---0-------|
    |-0-0-0-0-3-----------2----------|
    |--------------------------------| x 4
    
    
    |--------0-0-0-0h-3--------------|
    |-1---1------------0-3-----------|
    |---2------------------2---------|
    |--------------------------------|
    |--------------------------------|
    |--------------------------------| x 2
    
    
    
    |--------0-3-2-1-0----------------|
    |--1---1-----------3-1-0-3-1-0----|
    |----2-------------------------2--|
    |---------------------------------|
    |---------------------------------|
    |---------------------------------| x 3
    
    
    |--------------------------------|
    |--------------------------------|
    |--------------------------------|
    |-----------0h-2-2-2-2---0-------|
    |-0-0-0-0-3-----------2----------|
    |--------------------------------|
    
    
    |--------0-0-0-0h-3--------------|
    |-1---1------------0-3-----------|
    |---2------------------2---------|
    |---------------------------
  • riff 1.
    
    1|---------------------------|
    2|---------------------------|
    3|---------------------------| x4
    4|---------------------------|
    5|-0-0-0-0-3-5/7-7-7-7-7-2-5-|
    6|---------------------------|
    
    riff 2
    
    1|-----0-0-0-0h2---------|
    2|---1-----------0-3---1-|
    3|-2-----------------2---| x2
    4|-----------------------|
    5|-----------------------|
    6|-----------------------|
    
    1|-----0-0-0-3-2-1-0-------------|
    2|---1---------------1-0-3-1---1-|
    3|-2-------------------------2---|x3
    4|-------------------------------|
    5|-------------------------------|
    6|-------------------------------|
    
    empieza todo de nuevo y sigue con este punteo:
    
    riff 3.
    
    1|-------12-----12-12-----------------|
    2|-----13-----12-------12-14p12---13--|
    3|---14-----12------------------14----| x4
    4|-14---------------------------------|
    5|------------------------------------|
    6|------------------------------------|
    
    riff 4.
    
    1|------------------------------------------------------|
    2|---1-----------0-3----------1-----------0-3-
  • 1|---------------------------|
    2|---------------------------|
    3|---------------------------| x4
    4|------------0-2-2-2-2---0--|
    5|-0-0-0-0-3-----------2-----|
    6|---------------------------|
    
    1|-----0-0-0-0h3--------------|
    2|---1-------------0--3--1----|
    3|-2-------------------2------| x2
    4|----------------------------|
    5|----------------------------|
    6|----------------------------|
    
    1|------0-3-2-1------------------|
    2|---1----------3-1-0-1-3-1-0---1|
    3|-2--------------------------2--|x3
    4|-------------------------------|
    5|-------------------------------|
    6|-------------------------------|
    
  • esta cancion tiene dos formas de acompañamiento
    asi q hay q escuchar muy bien para poder realizarlo
    ya q hace durante mucho tiempo un mismo acompañamieto
    
    voy a escribir lo q hace la guitarra en toda la cancion
    para poder saber q acompañamiento hacer
    
    guitarra| bajo
    
    riff 1  | acomp 1
    riff 2     "  "
    riff 1     "  "
    riff 2     "  "
    riff 3     "  "
    riff 4  | acomp 2
    riff 5     "  "
    riff 1  | acomp 1
    riff 2     "  "
    riff 3     "  "
    riff 6   variacion
    
    acomp 1.
    
    1 |--------------|
    2 |------2-------|
    3 |--0--3------2-|
    4 |--------0--4--|
    
    acomp 2
    
    1 |-----------------|
    2 |------2----------|
    3 |--0--3-----2-5---|
    4 |---------3-------|
    
    
    variacion
    
    1 |------------------------------------------|
    2 |------2------2---2----2---2----2--2---2---|
    3 |--0--3---0--3-----3----3----3---3--3---3--|
    4 |---------------0----0----5----5--0--0-----|
    
    acomp 2
    
    1 |----------------|
    2 |------2---------| este hasta el final
    3 |--0--3-----2-5--|
    4 |---------3------|
    
    espero me entiendan
    alguna correcion
    lac239
  • +
    ¡Colabora con nosotros!
    Envíanos tu versión de esta canción






[La danza de los mirlos chords][La danza de los mirlos cifra]
© LaCuerda.net · aviso legal · privacidad · es · en · pt · contacto