Acordes de Guitarra » M »Los Mirlos » Chinito en onda (Tab)

Chinito en onda
Los Mirlos

Letras, Acordes y Tabs para Guitarra, Bajo y Ukulele

  • Hola, soy lualanmi y esta vez les envío otra tabs de Los Mirlos.
    Espero que les sirva de algo.
    
    Saludos.
    
    Cualquier duda me buscan en youtube con mi nick.
    
    
    Intro
    
    1|--10-10-8-8-5-5--8-8-10------------|
    2|--10-10-8-8-6-6--8-8-10------------|
    3|-----------------------------------|
    4|-----------------------------------|
    5|-----------------------------------|
    6|-----------------------------------|
    
    
    Riff 1:
    
    
    1|---------------------5---|
    2|-----6---6---6--6/10-----|
    3|--/7---7---7-------------|
    4|-------------------------|
    5|-------------------------|
    6|-------------------------|
    
    
    
    
    1|----5--5--5/10 10-------10----10---13-13/10---------|
    2|--6--6---------------10----10---------------10-10/6-|
    3|----------------------------------------------------|
    4|----------------------------------------------------|
    5|----------------------------------------------------|
    6|----------------------------------------------------|
    
    
    1|---------------------5-------5--5--6/10-10--|
    2|-----6---6---6--6/10---
  • +
    ¡Colabora con nosotros!
    Envíanos tu versión de esta canción






[Chinito en onda chords][Chinito en onda cifra]
© LaCuerda.net · aviso legal · privacidad · es · en · pt · contacto