Acordes de Guitarra » M »Los Mirlos » Lamento en la selva (Tab)

Lamento en la selva
Los Mirlos

Letras, Acordes y Tabs para Guitarra, Bajo y Ukulele

  • e|-------5-10]13]10--10]13]10--10]13]10---|
    B|------6---------------------------------|
    G|-----7----------------------------------|
    D|----------------------------------------|
    A|----------------------------------------|
    E|----------------------------------------| x1
    
    e|---13]10--13]10--------8]5-8]5---3---5]3-5]3-----1-|
    B|-------------------6------------5---------------3--|
    G|-----------------7-------------5---------------2---|
    D|---------------5-----------------------------------|
    A|---------------------------------------------------|
    E|---------------------------------------------------| x1
    
    
    (Segunda guitarra)
    
    e|----------------------------|
    B|----------------------------|
    G|-----2------2-2-------------|
    
  • +
    ¡Colabora con nosotros!
    Envíanos tu versión de esta canción

Letra de Lamento en la selva
(Segunda guitarra)
Acompañamiento
(guitarra vibrato) (opcion 2)
(guitarra vibrato)
Intermedio:
Saludos desde el distrito del Rimac, Perú




[Lamento en la selva chords][Lamento en la selva cifra]
© LaCuerda.net · aviso legal · privacidad · es · en · pt · contacto
DINAMICO