Acordes de Guitarra » M »Los Mirlos » Eres Mentirosa (Tab)

Eres Mentirosa
Los Mirlos

Letras, Acordes y Tabs para Guitarra, Bajo y Ukulele

  • Eres bien bonita pero mentirosa
    Dm                C             Dm
    engañas a los hombres
                      C
    siempre con mentiras, mentirosa, mentirosa.(Bis)
                       Dm
    
    Dices te quiero, te quiero mi amor
              C
    dices te amo con loca pasión  [Bis]
              Dm
    
    pero no lo dices con buena intención
              C
    porque tú no tienes, tú no tienes corazón.
              Dm
  • bueno no toko esta musika pero algunos les gusta y no encuentran
    tablaturas
    saludos pex pa aguelo=josimar lorenzo=tremolo y el negro= ernesto
    y gordo julio de mi lonsa 4to de secundaria "corazon de jesus"
    los olivos :D xD xD
    intro:
    e--------------------------------------------------------
    B--------------------------------------------------------
    G-------------------9---7--------------------------9-9---
    D----8--------8------------10-------8--10---8--10------10
    A-10---10-10----10--------------10--------10-------------
    E--------------------------------------------------------
    
    e---------10---13--10---12--12------------------------10-
    B------10----------------------13--13--11----------10----
    G---10-------------------------------------12--10--------
    D-12-----------------------------------------------------
    A--------------------------------------------------------
    E--------------------------------------------------------
    verso
    e--12---------------------8---12-----10---12-----10--10--
    B-----1
  • +
    ¡Colabora con nosotros!
    Envíanos tu versión de esta canción

Letra de Eres Mentirosa
engañas a los hombres
siempre con mentiras, mentirosa, mentirosa.(Bis)
Dices te quiero, te quiero mi amor
dices te amo con loca pasión [Bis]
pero no lo dices con buena intención
porque tú no tienes, tú no tienes corazón.




[Eres Mentirosa chords][Eres Mentirosa cifra]
© LaCuerda.net · aviso legal · privacidad · es · en · pt · contacto