Acordes de Guitarra » M »Maná » Te llevaré al cielo (Tab)

Te llevaré al cielo
Maná

Letras, Acordes y Tabs para Guitarra, Bajo y Ukulele

  • Em                                     Bm
    yo te puedo hacer feliz no dudes en probarlo amor oh yeah 
    Em                               Bm
    dame una oportunidad te voy a inundar de amor oh yeah 
    
    Em                                 Bm
    ay que voy a hacer si estoy re enamorado oh yeah
    Em
    ay mujer mujer
                     Bm
    porque temes al amor oh yeah 
    
    
    
    CORO
    
    Em          C    D           Bm
    poquito a poco te llevo al cielo amor, 
    Em          C     D         Bm
    poquito a poco yo te inundaré en mi amor,
    
  • B---x-x-x-x-  
    G---x-x-x-x- 
    D---x-x-x-x- 
    A---x-x-x-x-
    E---x-x-x-x-
    
     (Estos 2 acordes son la Guit. 1 en todos los versos)
          Em
    e-x-x-7-x-x-7-x-x-7-x-x-7-x-x-7-x-x-7-x-x-7-x-x7--
    B-x-x-8-x-x-8-x-x-8-x-x-8-x-x-8-x-x-8-x-x-8-x-x8--
    G-x-x-9-x-x-9-x-x-9-x-x-9-x-x-9-x-x-9-x-x-9-x-x9--
    D-x-x-9-x-x-9-x-x-9-x-x-9-x-x-9-x-x-9-x-x-9-x-x9--
    A-x-x-7-x-x-7-x-x-7-x-x-7-x-x-7-x-x-7-x-x-7-x-x7--
    E-x-x---x-x---x-x---x-x---x-x---x-x---x-x---x-x---
    
          Bm
    e-x-x-7-x-x-7-x-x-7-x-x-7-x-x-7-x-x-7-x-x-7-x-x7--
    B-x-x-7-x-x-7-x-x-7-x-x-7-x-x-7-x-x-7-x-x-7-x-x7--
    G-x-x-7-x-x-7-x-x-7-x-x-7-x-x-7-x-x-7-x-x-7-x-x7--
    D-x-x-9-x-x-9-x-x-9-x-x-9-x-x-9-x-x-9-x-x-9-x-x9--
    
  • OIGAN Q BUENA CANCION ESTA AH, Y PUES ACA ESTAN LOS TABS PARA
    BAJO, SI TIENES 5 CUERDAS, AL FINAL D LA CANCION HAY UNA PEKEÑA
    VARIACION DONDE EN ALGUNAS PARTES TIENEN Q TOCAR UNA OCTAVA MAS
    GRAVE...JAJA BUENO YA STA BIEN, ESTOS SON LOS TABS:
    ( TIENEN Q DARLE EL RITMO PARA Q SUENE BIEN )
    
    INTRO:
    
    G|------------11--11(h)12--11------------------------------
    D|--12/14---------------------14-12------------------------
    A|-------------------------------------14(h)12-14-----14---
    E|---------------------------------------------------------
    B|---------------------------------------------------------
    
    VERSO I:
    
    G|------------|-----------|--------------2-|-2--------------2--
    D|-2----0---2-|-0-2---012-|----------3/4---|---4--------3/4----
    A|----2-------|-----2-----|-----2--2-------|------2---2--------
    E|------------|-----------|02--------------|-------------------
    B|------------|-----------|----------------|-------------------
    
    G|-----|----------------------|2----------------
    D|---0-|--(--repite l
  • esta kancion es una de las ke tiene mas ritmo de
    mana oiganla bn
    
    INTRO:
    
    G|------------------------------------------------|
    D|--12/14-----16-16h17-16-------------------------|
    A|--------------------------19-17-----------------|
    E|--------------------------------19h17h19----19--|
    
    VERSO I:
    
    G|------------|-----------|--------------2-|-2--------------2--
    D|-2----0---2-|-0-2---012-|----------3/4---|---4--------3/4----
    A|----2-------|-----2-----|-----2--2-------|------2---2--------
    E|------------|-----------|02--------------|-------------------
    
    
    G|-----|----------------------|2----------------
    D|---0-|--(--repite las 3-----|--4--99--9-------
    A|-2---|--primeras partes del-|-----------9-----
    E|-----|--verso de arriba)----|--------------7--
    
    
    G|-----------|-----------------|------------2-|2-------------2-
    D|0-2----0-2-|------0------0-2-|--------3/4---|---4-------3/4--
    A|-----2-----|0(h)2------2-----|----2-2-------|------2--2------
    E|-----------|--------0--------|02------------|------------
  • +
    ¡Colabora con nosotros!
    Envíanos tu versión de esta canción

Letra de Te llevaré al cielo
yo te puedo hacer feliz no dudes en probarlo amor oh yeah
dame una oportunidad te voy a inundar de amor oh yeah
ay que voy a hacer si estoy re enamorado oh yeah
ay mujer mujer
porque temes al amor oh yeah
poquito a poco te llevo al cielo amor,
poquito a poco yo te inundaré en mi amor,
poquito a poco te llevo al cielo amor
oh yo te hablaré de amor
voy a bañarte de mi amor
bañarte a puros besos yo oh yeah
besos que entran con amor
y sacan todo el dolor oh yeah
di si estoy volando un cielo como tú
y si estoy soñando un cielo como tú
sé que estás cayendo, cayendo en el amor
oh yeah antes estoy yo
poquito a poco te llevo al cielo amor,
poquito a poco yo te inundaré en mi amor,
poquito a poco te llevo al cielo amor
oh yo te hablaré de amor
Interludio
ven bebita para acá,
ven pa aca y suelta las penas
ven bebita para acá
doy amor a manos llenas
si el amor te maltrató
y el pasado ya pasó
vente al cielo vente amor
ahhhah yo te llevaré al cielo (x5)
poquito a poco al cielo yo te llevaré al cielo yo...
EXCELENTE ROLA DE MANÁ!!!....
la vuelta a las raíces,
dedicada con todo
Te llevaré al cielo amor!
poquito a poco al cielo amor
para Carmenn!!!!!!!!!!
TQmm:)




[Te llevaré al cielo chords][Te llevaré al cielo cifra]
© LaCuerda.net · aviso legal · privacidad · es · en · pt · contacto