Acordes de Guitarra » M »Maná » Manda una señal (Tab)

Manda una señal
Maná

Letras, Acordes y Tabs para Guitarra, Bajo y Ukulele

  • C G Am G
    
        C
    Te quiero si te quiero
        G                            Am     G
    voy andando como fiera tras tus pies amor
        C                     G
    Te veo y te deseo pero tu
                                      Am   G
    tienes tu dueño y no te puedes safar
    
        Am       G        C
    Los dias se pasan sin ti
         Am         G        C
    Las noches se alargan sin ti
          Dm              G
    Sin tu amor sin tus besos
    
      C                  Am                       Em   G
    Ay si tuvieras libertad a tu lado yo estaria amor
    
  • D/F# G D/F# Em D/F#
    
        G
    Te quiero si te quiero
        D/F#                            Em     D/F#
    voy andando como fiera tras tus pies amor
        G                     D/F#
    Te veo y te deseo pero tu
                                      Em   D/F#
    tienes tu dueño y no te puedes safar
    
        Em      D/F#        G
    Los dias se pasan sin ti
         Em        D/F#        G
    Las noches se alargan sin ti
          Am              D/F#
    Sin tu amor sin tus besos
    
      G                  Em                       Bm   D
    Ay si tuvieras libertad a tu lado yo estaria amor
    
  • e--------5-/-----------/------------/
    B----------/--------8--/------------/
    G--5-------/-----5-----/---------5--/
    D-----7----/--7--------/------5-----/
    A----------/-----------/---7--------/
    E----------/-----------/------------/
    
               C                          G                    Am
    e-------/--10h12--12--12--10--8----/--10--12--10-----------10--/
    B--8--8-/--------------------------/--------------------------/
    G-------/--------------------------/---------------12--9------/
    D-------/--------------------------/--------------------------/
    A-------/--------------------------/--------------------------/
    E-------/--------------------------/--------------------------/
    
              G
    e---8--------------------/
    B------------------------/
    G---------9h10--9--7--5--/
    D------------------------/
    
  • C G Am G
    
    e|---3---3---3---3---5---5---3---3---|
    b|---5---5---3---3---5---5---3---3---|
    g|---5---5---4---4---5---5---4---4---|
    d|---5---5---5---5---7---7---5---5---|
    a|xxx-xxx-xxx-xxx-xxx-xxx-xxx-xxx-xxx|
    e|xxx-xxx-xxx-xxx-xxx-xxx-xxx-xxx-xxx|
    
        C
    Te quiero si te quiero
        G                            Am     G
    voy andando como fiera tras tus pies amor
        C                     G
    Te veo y te deseo pero tu
                                      Am   G
    tienes tu dueño y no te puedes safar
    
        Am       G        C
    Los dias se pasan sin ti
    
  • C G Am G
    
     C                       G                     Am             G
    Te quiero, si te quiero voy andando como fiera tras tus pies, amor
     C                       G                              Am      G
    Te veo y te deseo pero tu tienes tu dueño y no te puedes zafar
    
    (Esta parte se hace con palm muting)
    
     Am         G        C
    e|------|---------|--------------
    b|------|---------|--------------
    g|------|---------|--------------
    D|-2-2-2|-5-5-5-5-|-5-5-5-5-5-5-5
    A|-0-0-0|-2-2-2-2-|-3-3-3-3-3-3-3
    E|------|---------|--------------
     Los dias se pasan sin ti
    
     Am         G        C        Dm        G
    e|------|---------|---------|---------|----------------
    
  • esta es la version de arde el cielo xD
    
    Intro
    E|--------------------55555555--------3~--|
    A|--33333330-22222222----------2222222----|
    D|----------------------------------------|
    G|----------------------------------------|
    
    Te quiero
    E|--------------------55555555-------------|
    A|--33333330-22222222----------22222222----| x2
    D|-----------------------------------------|
    G|-----------------------------------------|
    
    Los dias...
    E|--3-5555-3333-------|
    A|--------------3(8)--|
    D|--------------------|
    G|--------------------|
    
    Las noches...
    E|-3-5(4)-7(4)-8(4)-10(4)-7(6)--3-3-3---------|
    A|-----------------------------------3-5------|
    D|--------------------------------------3-5---|
    G|--------------------------------------------|
    
    Ay si tuvieras libertad
    E|-8(8)-5(8)-----8(8)-------|
    A|-----------7(8)-----------|
    D|--------------------5/7-5-|
    G|--------------------------|
    
    Hey dame dame una señal
    E|-8(8)-5(8)-----8(8)-----------|
    A|-----------7(8)----------7-5--|
    D|--------------------5/7-5--
  • Esta transcrita toda la cancion
    espero q les agrade y califiquenla
    
    Intro
    E|----------------------3--|
    A|--3(8)-2(8)-0(8)-2(7)----|
    D|-------------------------|
    G|-------------------------|
    
    Te quiero
    E|------------------------|
    A|--3(8)-2(8)-0(8)-2(8)---| x2
    D|------------------------|
    G|------------------------|
    
    Los dias...
    E|--3-5(4)-3(4)-------|
    A|--------------3(8)--|
    D|--------------------|
    G|--------------------|
    
    Las noches...
    E|--5(4)-3(4)------------------3-3-3---------|
    A|------------3(4)-5(4)-2(6)-0------3-5------|
    D|--------------------------------------3-5--|
    G|-------------------------------------------|
    
    Ay si tuvieras libertad
    E|------3/5(8)--------------------|
    A|--3(8)--------------3(4)--------|
    D|-------------0/2(8)------5/7-5--|
    G|--------------------------------|
    
    Hey dame dame una señal
    E|---------------------------------|
    A|--3(8)-0(8)------3(4)------------|
    D|------------2(8)------5/7---8-7--|
    G|--------------------------5------|
    
    Hay no lo puedo...
    E|-------
  • Es UnA rola chida que la transcribi
    pzz por que...la estaba escuchando y  se me pego
    y pzzz yo un virtuoso de la bataka la saque hermanos
    ojala y la pongan
    OZ DEJO LA ROLA QUE AUNQUE NO ES MUCHO DE MI AGRADO
    OS LAS DEJO
    
    
    (intro)
    Empieza con esto (solo)
    cr-x-----------------------------
    H--X-X-X-X-X-X-X-X-X-X-X-X-X-X---
    C----O------O------O----O----OO--
    B-O-----O-O----O-----O---O-O-O-O-
    
    
    DESPUES (0:05)
    H-X-X-X-X-X-X-X-X-X-X-X-X-X-X-X-X-
    C---O--------O--------O-------OO--
    B-O----O-O------O-------O-O--O----
    
    EMPIEZA 0:15
    TE QUIERO SI TE QUIERO....
    H-X-X-X-X-X-X-X-X-X-X-X-X-X-X-X-X-
    C-----O------O-----O-----O---O----
    B-O-----O-O----O-----O-O---------
     Y LÑUEGO DA IGUAL PERO PEGA EN EL PLATO EN EL 0:25
    H-X-X-X-X-X-X-X-X-X-X-X-X-X-X-X-X-
    C-----O------O-----O-----O---O----
    B-O-----O-O----O-----O-O----------
     DA EN PLATO PRIMERO ABRE Y DA EN EL PLATO
    0:36
    
    LOS DIAS SE PASAN SIN TI
    H-X-X-X-X-X-X-X-X-X-X-X-X-X-X-X-X-
    C-----O------O-----O-----O---O----
    B-O-----O-O----O-----O-O----------
    
    lAS N
  • +
    ¡Colabora con nosotros!
    Envíanos tu versión de esta canción
  • Tutorial
    HD
    Como Tocar El 1er solo de la Cancion Manda Una Señal de Mana - Tutorial de Guitarra Electrica
    5:31
  • Tutorial
    HD
    Como Tocar el 2do Solo de La Cancion Manda Una Señal de Mana - Leccion de Guitarra Electrica
    5:10
  • Tutorial
    HD
    Tutorial Guitarra Manda Una Señal de Mana; Karma Guitar
    7:28

Letra de Manda una señal
Te quiero si te quiero
voy andando como fiera tras tus pies amor
Te veo y te deseo pero tu
tienes tu dueño y no te puedes safar
Los dias se pasan sin ti
Las noches se alargan sin ti
Sin tu amor sin tus besos
Ay si tuvieras libertad a tu lado yo estaria amor
Hey dame dame una señal cuando seas libre mi amor
Hay yo no puedo soportar no me quiero derrumbar
Mandame un mensaje una señal manda una señal de amor
manda una señal amor
Te veo acorralada de unos brazos que no te dejan mover
te deseo me deseas pero estas muy aprisionada corazon
Y no vivire sin tu amor
Y no parare hasta tener tu amor y tus besos
Hey estoy viviendo sin vivir estoy muriendo sin poder morir
Hey dime dime tell me too cuando seas libre mi amor
Hay no lo puedo soportar no me quiero derrumbar
Mandame un mensaje una señal mandame tu luz amor
manda una señal amor
Vivir sin ti vivir estarse muriendo sin morir
Estar sin ti estar estarse muriendo sin morir
Amor donde estaras manda un mensaje una señal
Y no no parare no vivire sin ti amor no




[Manda una señal chords][Manda una señal cifra]
© LaCuerda.net · aviso legal · privacidad · es · en · pt · contacto