Acordes de Guitarra » M »Maná » El Dragón (Tab)

El Dragón
Maná

Letras, Acordes y Tabs para Guitarra, Bajo y Ukulele

  • Intro: Em Am B Em (2X)
    
    
        Em      Am
    1.) Vas mi vida
     B            Em
    perdiendo el suelo
     Am             B
    te vas sin despedida
                        Em
    te vas hiriendo el cielo.
    
         Em       Am
    2.) Te di mi vida
     B         Em
    te amaba tanto
      Am              B
    dragones en el viento
    
    que rompieron
    
  • e-7--7--7--5--5--5--5--5--5--3--3--3---3--3--3--2--2--2--2--2--
    B--5--5--5--5--5--5--4--4--4--0--0--0---0--0--0--5--5--5--4--4--
    G---4--4-----4--4-----4--4-----4--4------5--5-----2--2-----2--2-
    D---------------------------------------------------------------
    A---------------------------------------------------------------
    E---------------------------------------------------------------
    
    e-2--0--0--0---------------------------
    B--4--0--0--0--------------------------
    G------0--0----------------------------
    D--------------------------------------
    A--------------------------------------
    E--------------------------------------
    
    
     Em           Am        B7           Em
    te vaaaaas mi vida perdiiiiiendo el suelo
    e-7--7--7--5--5--5--5--5--5--3--3--3--
    B--5--5--5--5--5--5--4--4--4--0--0--0-
    G---4--4-----4--4-----4--4-----4--4---
    
  • +
    ¡Colabora con nosotros!
    Envíanos tu versión de esta canción

Letra de El Dragón
1.) Vas mi vida
perdiendo el suelo
te vas sin despedida
te vas hiriendo el cielo.
2.) Te di mi vida
te amaba tanto
dragones en el viento
que rompieron
nuestro encanto.
3.) No podía y no leía
las líneas tan heridas
tatuadas en tu alma.
Precoro
Te vas fugaz a la eternidad.
a.) Dragón parece un dragón
tus recuerdos quedaron
salpicando fuego.
Dragón parece un dragón
va salpicando el fuego
va hiriendo el cielo.
b.) Dragón parece un dragón
tus recuerdos quedaron
salpicando fuego.
Dragón parece un dragón
hiriendo la eternidad.
4.) Veneno y penas
fluyen por tus venas
ficticio paraíso
y yo sin darme cuenta.
5.)Dolor por dentro
dragones en el viento
clavaron sus colmillos
la adicción y el sufrimiento.
Precoro
Te vas fugaz a la eternidad.
a.) Dragón parece un dragón
tus recuerdos quedaron
salpicando fuego.
Dragón parece un dragón
va salpicando el fuego
va hiriendo el cielo.
b.) Dragón parece un dragón
tus recuerdos quedaron
salpicando fuego.
Dragón parece un dragón
hiriendo la eternidad.
Precoro
Te vas fugaz a la eternidad.
Dragón parece un dragón
la adicción clava sus colmillos en el cuello.
Dragón parece un dragón
va salpicando el fuego
va hiriendo el cielo.
Dragón parece un dragón
tus recuerdos quedaron
salpicando fuego.
Dragón parece un dragón
hiriendo la eternidad
Repite intro (1x)
Uh uh uh… uoh uh uh uh
Uh uh uh … uh uh uh uh [2X]




[El Dragón chords][El Dragón cifra]
© LaCuerda.net · aviso legal · privacidad · es · en · pt · contacto
DINAMICO