Acordes de Guitarra » M »Maná » El Desierto (Tab)

El Desierto
Maná

Letras, Acordes y Tabs para Guitarra, Bajo y Ukulele

  •         D  Bm G                D       Bm G
    Ya me voy      muy lejos del pueblo,
         D                  Bm   G
    empacando maletas, guardando recuerdos
     D          Bm G
    de amor.
    
            D  Bm G         D      Bm G
    Ya me voy      rumbo al norte
          D                     Bm    G        D   Bm  G
    dejo novias, mis calles, mi gente, mi méxico
    
        A     G        Bm
    * Ay, Ay, Ay, Ay
                   A
    algun dia yo volveré
    A       G         Bm
    Ay, Ay, Ay, Ay
                  A
    te prometo mi amor
    
  •   (D Bm G)
    (Y LA ERLECTRICA HACE ESTOS PUNTEOS EN EL INTRO)
    Intro
    1.---------------------|
    2.---------------------|
    3.---------------------| X2
    4.---------------------|
    5.-5-5-5---5---2-2-----|
    6.-------5---5-----3-3-|
    
     VERSOS:
            D  Bm G                D       Bm G
    Ya me voy      muy lejos del pueblo,
         D                  Bm   G
    empacando maletas, guardando recuerdos
     D          Bm G
    de amor.
    1.-2-2-2-0-0-0--3-3v-|
    2.-------------------|
    3.-------------------|
    
  •        D                     Bm
    Ya me voy, muy lejos del pueblo,
         A                  G                   D
    empacando maletas, guardando recuerdos de amor.
    
    1. --------------|
    2. -7-7\5-5-3/5--|
    3. --------------|
    4. --------------|
    5. --------------|
    6. --------------|
    
           D            Bm
    Ya me voy, rumbo al norte,
             A                G              D
    dejo novias, mis calles, mi gente, mi mexico.
    
    1. ------------------|
    2. -7-7\5-5-5\3-3-5--|
    3. ------------------|
    
  • Intro
    G|---------------------|
    D|---------------------|
    A|-5-5-5---5---2-2-----| x2
    E|-------5---5-----3-3-|
    
    Verso
    G|---------------------|
    D|---------------------|
    A|-5-5-5---5---2-2-----| x3
    E|-------5---5-----3-3-|
    
    G|-----------------------|
    D|-----------------5-4/2-|
    A|-5-5-5---5---2-2-------|
    E|-------5---5-----------|
    
    G|---------------------|
    D|---------------------|
    A|-5-5-5---5---2-2-----| x4
    E|-------5---5-----3-3-|
    
    Pre-Coro
    G|-------------------------------------|-----------------------------------|
    D|-------------------------------------|-----------------------------------|
    A|-----------------2-2-2/4-----1/3-2/4-|-----------------2-2-2/4-2-4-2-4/5-|
    E|-5-5-5-5-3-3-3-3---------3-3---------|-5-5-5-5-3-3-3-3-------------------|
    
    Coro
    G|---------------------------------|-----------------------------------|
    D|---------------------------------|-----------------------------------|
    A|-5--5-5---5--5-5/2--2-2----------|-5--5-5------------------------
  • +
    ¡Colabora con nosotros!
    Envíanos tu versión de esta canción

Letra de El Desierto
Ya me voy muy lejos del pueblo,
empacando maletas, guardando recuerdos
de amor.
Ya me voy rumbo al norte
dejo novias, mis calles, mi gente, mi méxico
* Ay, Ay, Ay, Ay
algun dia yo volveré
Ay, Ay, Ay, Ay
te prometo mi amor
**No lloraré mientras camino
el desierto la luna se viene con migo
no, yo no se donde va el tren
te lo juro mi amor, por ti volveré
No se si comeré, ni donde dormiré
pero con tu recuerdo del frío, me cubriré
Creeme amor, se necesita valor
y no creo que el desierto y la luna
me den tu amor.
* Coro
* Coro
**No lloraré mientras camino
el desierto la luna se viene con migo
no, yo no se donde va el tren
te lo juro mi amor, por ti volveré
Por ti volveré
Por ti volveré
Por ti volveré
Por ti volveré




[El Desierto chords][El Desierto cifra]
© LaCuerda.net · aviso legal · privacidad · es · en · pt · contacto
DINAMICO