Acordes de Guitarra » M »Maná » El Celoso (Tab)

El Celoso
Maná

Letras, Notas, Punteos, Tablaturas y Acordes de Guitarra (Tabs & Chords)

  • Letra y Acordes
    C-G-D-G
    
    G                          D
    Si no estas conmigo nada importa
                           G
    el vivir sin verte es morir
    G                             D
    si no estas conmigo hay tristeza
                               G
    y la luz del sol no brilla igual
    
    
    coro
    C                         G
    sin tu amor los celos me consumen
          D                  G
    y el temor no me deja dormir
         C                 G
    dime tu que hago vida mia
           D                  G
    
  • Letra y Acordes
    A
    
    A                           E7
    Si no estás conmigo nada importa
                            A
    El vivir sin verte es morir
                                E7
    Si no estás conmigo hay tristeza
                                 A    A7
    Y la luz del sol no brilla igual
    
    
         D                       A
    Sin tu amor los celos me consumen
          E7                    A   A7     
    Y el temor no me deja dormir
         D                  A
    Dime tú que hago vida mía
         E7                     A
    Sin tu amor yo voy a enloquecer
    
  • Letra y Acordes
    INTRO: C - G - D - D7 - G
    
          G                  D
    Si no estas conmigo nada importa
       D7        D        G
    El vivir sin verte es morir
          G                    D
    Si no estas conmigo hay tristeza
         D7       D            G      G7
    Y la luz del sol no brilla igual
    
            C                   G
    Sin tu amor los celos me consumen
          D        D7       G    G7
    Y el temor no me deja dormir
          C                 G
    Dime tu que hago vida mia
           D        D7          G   G7
    Sin tu amor yo voy a enloquecer
    
    
  • Tablatura
    INTRO: C - G - D - G
    e|-------------12-14-15-15-15-15-14-12-10----10-7-----------------
    B|-------13.---13-15-17-17-17-17-15-13-12---------8-7---7---7-----
    G|-12-12----------------------------------------------9---9---9.--
    D|----------------------------------------------------------------
    A|----------------------------------------------------------------
    E|----------------------------------------------------------------
    
    e|-15-15-13.---12-10-12-10-8--7--------------------------------------|
    B|-17-17-14.---13-12-13-12-10-8-------7-------7----------------------|
    G|--------------------------------7-9---9-7-9---9-7-9.-7-9-7-6-5-4.--|
    D|-------------------------------------------------------------------|
    A|-------------------------------------------------------------------|
    E|-------------------------------------------------------------------|
    
    
    G                        (Riff 1)
    Si no estás conmigo nada importa
                      G   (Riff 2)
    el vivir sin verte es morir
    
  • Tab p/Bajo
    Aqui les mando el bajo de esta excelente cancion de Maná
    
    Intro
    
    G|-----------|-----------|-----------|-----------|
    D|----2-2-5--|----2-2-5--|-----------|-----------|
    A|-3---------|-3---------|----2-2-5--|----2-2-3--|
    E|-----------|-----------|-3---------|-3---------|
    
    
    G|--------2--|-----------|---------|-----------|
    D|----4-4----|----4-4----|---------|-----------|
    A|-5---------|-5------5--|----2-5--|----2-2-5--|
    E|-----------|-----------|-3-------|-3---------|
    
    
    Verso 1
    
    
    G|-----------|----------|--------2-|--------2-|
    D|-----------|----------|----4-4---|----4-4---|
    A|----2-2-5--|----2-2-3-|-5--------|-5--------|
    E|-3---------|-3--------|----------|----------|
    
    Si no estás conmigo... nada importa...
    
    
    
    G|------2---2--|------2---2--|-----------|-----------|
    D|----4---4----|----4---4----|-----------|-----------|
    A|-5-----------|-5-----------|----2-2-5--|----2-2-5--|
    E|-------------|-------------|-3---------|-3---------|
    
    
    el vivir sin verte... es morir...
    
    
    G|-----------|----------|-
  • +
    ¡Colabora con nosotros!
    Envíanos tu versión de esta canción

Letra de El Celoso
Si no estas conmigo nada importa
el vivir sin verte es morir
si no estas conmigo hay tristeza
y la luz del sol no brilla igual
sin tu amor los celos me consumen
y el temor no me deja dormir
dime tu que hago vida mia
sin tu amor yo voy a enloquecer
Sin tu amor los celos me consumen
y el demor no el deja dormir
dime tu que hago vida mia
sin tu amor yo voy a enloquecer



© LaCuerda.net · Aviso Legal · Privacidad