Acordes de Guitarra » M »Maná » Ay doctor (Tab)

Ay doctor
Maná

Letras, Acordes y Tabs para Guitarra, Bajo y Ukulele

  • Em
     Me ha envenenado
     con sus labios, con sus besos.
     Alucinado,
     loco por su desamor.
    
    Em
     Soy un desastre en la escuela,
     en la casa y el trabajo, oye,
     no me consuelan ni las pastas
     ni la ganya ni el alcohol, no.
    
    Em
     Le dije al doctor,
     como es que se cura esto?
     Me ha recetado
     calma y algo de Prozac.
    
    Em
     Me dijo, la terapia cura
    
  • e-----------------------------
    a-----------------------------
    d-------------------------4---
    g--2---2--1-1--2---1h2p1------
    b----2------------------------
    e-----------------------------
    
                                        
    e-----------------------------
    a-----------------------------
    d-----------------------------
    g--2---2--1-1-----------------
    b----2--------2---2h3p2----2--
    e-----------------------------
    
    e---14-----12------14-------14------14--------14-------
    B---14-----12------14-------14------14--------14-------
    G---14-----13------14-------14------14--------14-------
    
      LOS ACORDES SON:
    
  • Em
      me ha envenenado
    con sus labios, con sus besos.
    alucinado, loco por su desamor
    
    Em
      soy un desastre en la escuela,
    en la casa y el trabajo, oye,
    no me consuelan nilas pastas
    ni la ganya ni el alcohol, no.
    
    Em
      le dije al doctor
    ¿como se cura esto?
    me ha recetado
    calma y algo de prozac
    
    Em
      me dijo, la terapia cura
    pero es mucha la locura
    
  • |---------------------------------------------------|
    |---------------------------------------------------|
    |-------6-------------------------6-------6-6p7h6-6-| x 2
    |-7-7-7---7-6-6-7-6p7h6-4---7-7-7---7-6-6-----------|
    |---------------------------------------------------|
    |---------------------------------------------------|
    
    -guitarra 2: acompaña también en los versos:
    
    |----------------------------------|
    |----------------------------------|
    |------------------------------2-1-|
    |---2-4-4-4-4---2----2-4-4-4-4-----|
    |-4-----------4----4---------------|
    |----------------------------------|
    
    -Versos 1ª parte:
    
    Envenenado con sus labios con sus besos
    
    
  • HOLA ESTA ES LA VERSION ORIGINAL DEL INTRO 
    DE LA ROLA.
    LES ASEGURO DE QUE SI ESCUCHAN LA CANCIÒN SI LES QUEDA
    e-----------------------------
    a-----------------------------
    d-------------------------4---
    g--2---2--1-1--2---1h2p1------
    b----2------------------------
    e-----------------------------
    
                                          x2 solo en el intro
    e-----------------------------
    a-----------------------------
    d-----------------------------
    g--2---2--1-1-----------------
    b----2--------2---2h3p2----2--
    e-----------------------------
    
    despues  de  que dice ni la 'ganyani el alcohol'se repite dos veces
    se repite dos veces despues  del primer coro.
    
    si tienen po ahi el tab do sog of the wind de santana mandenlo a mi correo
  • -------------------------------------------------------------------------
    
    Intro:
    
    1. --------------------|----------------------|-----|-14-12-14---14-14-14-| 
    2. --------------------|----------------------|-----|-14-12-14---14-14-14-| 
    3. ---6----------------|---6-------6-6/7\6-6~-|-----|-14-13-14---14-14-14-|  
    4. –7---7-6-6-6/7\6-4~-|-7---7-6-6------------|-BIS-|---------------------| 
    5. --------------------|----------------------|-----|---------X2----------|
    6. --------------------|----------------------|-----|--Distrocion-Ligera--| 
    
    (Riff 1)- F#m E A E
    
    Me ha envenenado... con sus labios, con sus besos, 
    alucinado, loco por su desamor,
    soy un desastre en la escuela, en la casa y el trabajo, oh yeeh,
    no me consuelan ni las pastas, ni la ganya ni el alcohol, noo.
    
    1. --------------------|----------------------| 
    2. --------------------|----------------------|
    
  • Intro/Verso:
    
    G|--------------------------------------|  24X
    D|----2-444---2------2-444/7-4----------|
    A|-4--------5------4--------------------|
    E|--------------------------------------|
    
    Coro:
    
    G|--------------------------------------|
    D|----222/4-----222/4-------------------|
    A|-----------00--------22-000-2-----2-0-|
    E|-22---------------------------22------|
    
    G|--------------------------------------|
    D|----222/4-----222/4-------------------|
    A|-----------00-------22-0222-2222-2222-|
    E|-22-----------------------------------|
    
    Puente:
    
    G|--------------------------------------|
    D|--------------------------------------|
    A|--------------------2-0---------------| x4
    E|-2222--2222--2222---------------------|
    
    Puente 2:
    
    G|--------------------------------------|
    D|--------------------------------------|
    A|-0/2--2-0-----------------------------|
    E|-----------2-0------------------------|
    
    G|--------------------------------------|
    D|----222/4-----222-------222/4----22---|
    A|------------------2-
  • +
    ¡Colabora con nosotros!
    Envíanos tu versión de esta canción

Letra de Ay doctor
Me ha envenenado
con sus labios, con sus besos.
Alucinado,
loco por su desamor.
Soy un desastre en la escuela,
en la casa y el trabajo, oye,
no me consuelan ni las pastas
ni la ganya ni el alcohol, no.
Le dije al doctor,
como es que se cura esto?
Me ha recetado
calma y algo de Prozac.
Me dijo, la terapia cura
pero es mucha la locura
al amor pudiste entrar
pero no vas escapar.
Ay, doctor
como me duelen los besos,
como me duele el amor.
Ay, doctor
deme algo, por favor
ay como me duele el amor.
Mire, doctor
que ando alucinado, mire.
Mire, doctor
que ando alucinado, mire.
Mire, doctor
que ando alucinado, mire.
Mire, mire.
Ay, doctor
como me duelen sus besos,
como me duele el amor.
Ay, doctor
deme algo, por favor
ay, como me duele el amor.
Deme algo, mi doctor
me esta matando esta depresion
estoy demente por su amor
me esta matando la obsesion.
Ay, doctor
como me duelen sus besos,
como me duele el amor.
Ay, doctor
deme algo, por favor
ay, como duele el amor.
Estoy yo muy desolado
estoy alucinado
estoy perdiendo la razon
y tu no tienes compasion
pero ya no vuelve
pero ya no vuelve.
Deme algo, mi doctor
alivianeme todo el dolor
deme algo, deme algo
deme algo, doctor.
Esta cancion va para Amorfo, y Tanairi, como chingo, jajajja,
saquenla, esta facil, si no me escriben, y si si, pues tambien.




[Ay doctor chords][Ay doctor cifra]
© LaCuerda.net · aviso legal · privacidad · es · en · pt · contacto