Acordes de Guitarra » M »Maná » Ana (unplugged) (Tab)

Ana (unplugged)
Maná

Letras, Acordes y Tabs para Guitarra, Bajo y Ukulele

  • e--4-4-4-4-------------2-2-2-2-2-2
    B--5-5-4-5---2-2-0-2---2-2-2-4-4-4
    G--6-6-6-6---2-2-2-2---2-2-2-4-4-4
    D--6-6-6-6---2-2-2-2---4-4-2-4-4-4
    A--4-4-4-4-------------4-4-4-2-2-2
    E--4-4-4-4-------------2-2-2------
    
    C#m            A
    Ana tiene quince
    F#m                  B
    ninia se le vino un problemon
    C#m            A
    algo esta creciendo
    F#m                  B
    en su vientre hay algo en expansion
    C#m            A
    el culpable ya huyo
    F#m            B
    pobre ana sola se quedo
    C#m            A
    
  •   C#m          A
    |----------------7/9-9-9---|
    |-----------5----7/9-9-9-7-|
    |-4/6-6-4-6----------------|
    |--------------------------|
    |--------------------------|
    |--------------------------|
    
      F#m                                   B
    |-7/9--9-11----9-11-12-9-11----9---------------------------------|
    |-----------12--------------12---10-9-8-----9--------------------|
    |---------------------------------------11----11-9-8------11~-11-|
    |----------------------------------------------------11-9--------|
    |----------------------------------------------------------------|
    |----------------------------------------------------------------|
    
         C#m                           (A)
    |-x-x-9-x-11-x-12-x-12-x-12-12-|
    |------------------------------|
    |-x-x-6-x--8-x--9-x--9-x--9--9-|   X 2
    
  • C#m   A     F#m    B     G#m    E
       4     0     2      2     4      0
       5     2     2      4     4      0
       6     2     2      4     4      1
       6     2     4      4     6      2
       4     0     4      2     6      2
       X     X     2      X     4      0
    
    Intro:
    
    e-I-44-44444-I-44-44444-I-00-00000-I-22-22222-I
    B-I-55-44445-I-55-55555-I-00-00000-I-00-00000-I    esto se toca junto a
    G-I-66-66666-I-66-44446-I-11-11112-I-22-22222-I    otra guitarra serian
    D-I-66-66666-I-77-77777-I-22-22222-I-11-11111-I    dos aqui esta el ritmo
    A-I-44-44444-I-44-44444-I-00-00000-I-22-22222-I     de la otra...
    E-I-44-44444-I-44-44444-I-22-22222-I-00-00000-I
    
    2ª GUITARRA
    
    e-I-44-44444-I-44-44444-I-55-55555-I-77-77777-I
    
  • e--4-4-4-4-4--4-4--4-4-4-4-4-4--4-4--0-0-0-0-0-0--0-0-0-0--|
    B--5-5-4-4-4--4~5--5-5-5-5-5-5--5-5--0-0-0-0-0-0--0-0-0-0--|
    G--6-6-6-6-6--6-6--6-6-4-4-4-4--4~6--2-2~1-1-1~2--2-2-2-2--|
    D--6-6-6-6-6--6-6--7-7-7-7-7-7--7-7--2-2-2-2-2-2--1-1-1-1--|
    A--4-4-4-4-4--4-4--4-4-4-4-4-4--4-4--0-0-0-0-0-0--2-2-2-2--|
    E------------------------------------2-2-2-2-2-2-----------|
    
    C#m         A
    Ana tiene quince
    F#m          B
    niñia se le vino un problemon
    C#m            A
    algo esta creciendo
    F#m               B
    en su vientre hay algo en expansion
    C#m               A
    el culpable ya huyo
    F#m        B
    pobre ana sola se quedo
    C#m          A
    
  • esta cancion es genial
    lo que mas me gusta es el intro del bajo
    que chala
    ahi les va
    Intro
    00:10
    E|--------------|
    A|--9--------9--|
    D|---9/11-99----|
    G|--------------|
    
    E|-------------|-----4-2-|-2-22-22---|------|
    A|--44-4-4-2-0-|-0-0-----|---------2-|-2-2--|
    D|-------------|---------|-----------|------|
    G|-------------|---------|-----------|------|
    
    Ana tiene 15
    E|------|------|----2-|------|
    A|------|---7--|---4--|-222--|x2
    D|---6--|-77-7-|-44---|------|
    G|--6-6-|------|------|------|
    
    
    E|-------------|-----4-2-|-2-22-22---|-------|
    A|--44-4-4-2-0-|-0-0-----|---------2-|-2-22--|x3
    D|-------------|---------|-----------|-------|
    G|-------------|---------|-----------|-------|
    
    Ana no lo cuenta
    E|------|------|----2-|------|
    A|------|---7--|---4--|-222--|x2
    D|---6--|-77-7-|-44---|------|
    G|--6-6-|------|------|------|
    
    se siente morir
    E|-------------|-----4-2-|-2-22-22---|-------|
    A|--44-4-4-2-0-|-0-0-----|---------2-|-2-22--|x3
    D|-------------|---------|-----------|-------|
    G|--------
  • +
    ¡Colabora con nosotros!
    Envíanos tu versión de esta canción

Letra de Ana (unplugged)
Ana tiene quince
ninia se le vino un problemon
algo esta creciendo
en su vientre hay algo en expansion
el culpable ya huyo
pobre ana sola se quedo
no le duele tanto eso
sino que lo niegue el maricon
Ana lo no cuenta
Ana llueve llanto en su colchon
y hay que ser discreta
ropa suelta esconde la ocasion.
Se siente morir
pobre Ana no quieres vivir
si en casa la descubren
la azotan, la corren, la matan
Chorus:
Ana se ira algun dia
se ira para siempre
Ana se ira de este mundo
se ira al jamas
Ana se ira algun dia
se ira para siempre
Ana se ira de este mundo
se ira al jamas
Por cierto en casa de Ana
ya nunca hubo comprension
lo que mas lamenta Ana
es que nunca hubo educacion
y en desesperacion
la vida de Ana se esfumaba
y todo porque aquel dia
el egoismo y la conciencia
se quedaron en un cajon
Chorus:
Ana se ira algun dia
se ira para siempre
Ana se ira de este mundo
se ira al jamas
Ana se ira algun dia
se ira para siempre
Ana se ira de este mundo
se ira al jamas
(This part is just a little hard.
i just can't get it!!)
Se ira, se ira, se ira al jamas.
aplausos.




[Ana (unplugged) chords][Ana (unplugged) cifra]
© LaCuerda.net · aviso legal · privacidad · es · en · pt · contacto