Acordes de Guitarra » M »Maná » Ana (Tab)
  • Letra y Acordes
    C#m  B-C#m-B    C#m-A-F#m-B  C#m-A-F#m-B
    
    C#m               A
       Ana tiene quince
    F#m            B
       ni~a se le vino un problemon
    C#m               A
       algo esta creciendo
    F#m                  B               C#m
       en su vientre hay algo en expansion.
    
                       A
    El culpable ya murio
    F#m           B          C#m
       pobre Ana sola se quedo,
                 A
    no le duele tanto eso
    F#m              B             C#m-A-F#m-B
       sino que lo niegue el maricon.
    
    
  • Letra y Acordes
    Bm  G-Em-A    Bm-G-Em-A  Bm-G-Em-B
    
    Bm                G
       Ana tiene quince
    Em             A
       niña se le vino un problemon
    Bm                G
       algo esta creciendo
    Em                   A               Bm 
       en su vientre hay algo en expansión.
    
                       G
    El culpable ya murió
    Em            A          Bm 
       pobre Ana sola se quedo,
                 G
    no le duele tanto eso
    Em               A             Bm-G-Em-A
       sino que lo niegue el maricon.
    
    
  • Letra y Acordes
    Em,C,Am,D
    
      Em              C
        Ana tiene quince
      Am             D               Em
        niña se le vino un problemòn
                     C        Am
        algo està creciendo
                            D             Em
        en su vientre hay algo en expansiòn.
                     C       Am
        El culpable ya huyò
                     D          Em
        pobre Ana sola se quedò
                     C        Am
        no le duele tanto
                         D
        sino que lo niegue el maricòn
    
    Em,C,Am,D
    
  • Tablatura
       C#m   A     F#m    B     G#m    E
       4     0     2      2     4      0
       5     2     2      4     4      0
       6     2     2      4     4      1
       6     2     4      4     6      2
       4     0     4      2     6      2
       X     X     2      X     4      0
    
       S   Slide               +  Palm Muting        R  Rest  
       P   Pull Off            H  Hammer On
       M.. Keep Pulling Off    X  Fret Mutting
    
       Intro:
                               + +
    E |-------7-7---5-5---4-4----------7-7---5-5---4-4---------
    B |-----5------------------------5-------------------------
    G |---6-------6-----6----------6-------6-----6-------4-----
    D |--------------------------------------------------4-----
    A |-4----------------------4-4-----------------------2-----
    E |--------------------------------------------------------
    
  • Tablatura
    C#m             A
        Ana tiene quince
    F#m            B
        niña se le vino un problemòn
    C#m             A
        algo està creciendo
    F#m                   B
        en su vientre hay algo en expansiòn.
    
    (CON LOS ACORDES ANTERIORES)
    
    El culpable ya huyò
    pobre Ana sola se quedò
    no le duele tanto eso
    sino que lo niegue el maricòn
    
    RIFF:(C#m A F#m B)
    
    Ana no lo cuenta
    Ana llueve llanto en su colchòn
    
  • Tablatura
    Tono- DO#m  ó  MI Mayor.
    
    Intro.
    2 veces
    e-I---------7---------5----------4---------I    
    B-I----------------------------------------I
    G-I------6-----6----------6---------6------I
    D-I----6---------6----------6----------6---I
    A-I--4-------------------------------------I
    E-I----------------------------------------I
         pm.
    En la intro se aogan (pm) algunas cuerdas, 
    chequen el CD y vean cuales, 
    lleva un poco de distorcion como en el 6.
    pm. = palm muting
    
    Despues de la intro.
                 Grt.1
    e-I---------I----------------I
    B-I---------I---7-9/10--7/9--I
    
  • Tab p/Bajo
    Intro:
    
    ||-------------|-------------|---------6-8-|-------------||
    ||--------6--9-|-------------|---6-6-6-----|-7-7-7--9--6-||
    ||-7-7-7-------|-9-9-9-------|-------------|-------------||
    ||-------------|-------------|-------------|-------------||
    
    Verso 1: sin bajo
    
    (intro)
    |-------------|-------------|---------6-8-|--------6----|
    |--------6--9-|-------------|---6-6-6-----|-7-7-7-----9-|
    |-7-7-7-------|-9-9-9-------|-------------|-------------|
    |-------------|-------------|-------------|-------------|
    
    |-------------|-------------|---------6-8-|-------------|
    |--------6--9-|-------------|---6-6-6-----|-7-7-7--7--9-|
    |-7-7-7-------|-9-9-9-------|-------------|-------------|
    |-------------|-------------|-------------|-------------|
    
    verso 2:
    |-------------|-------------|-------------|-------------|
    |-------------|---------42--|-------------|------4-4-1-1|
    |-7-7-7-7-7-7-|-2-2-2-2---42|0-0-0-0-0-0-0|2-2-2--------|
    |-------------|-------------|-------------|--------
  • +
    ¡Colabora con nosotros!
    Envíanos tu versión de esta canción

Letra de Ana
Ana tiene quince
ni~a se le vino un problemon
algo esta creciendo
en su vientre hay algo en expansion.
El culpable ya murio
pobre Ana sola se quedo,
no le duele tanto eso
sino que lo niegue el maricon.
Ana no lo cuenta
Ana llueve llanto en su colchon
y hay que ser discreta
ropa suelta esconde la ocasion.
Se siente morir
pobre Ana no quiere vivir
si en casa la descubren
la azotan, la corren, la matan.
Ana se ira algun dia
se ira para siempre
Ana se ira de este mundo
se ira al jamas
Ana se ira algun dia
se ira para siempre
Ana se ira de este mundo
se ira al jamas, no no no no.
Por cierto en casa de Ana
claro nunca hubo comprension
lo que mas lamenta Ana
es que nunca hubo educacion
y en desesperacion
la vida de Ana se esfumaba
y todo porque aquel dia
el egoismo y la conciencia
se quedaron en un cajon.
Ana se ira...



© LaCuerda.net · aviso legal · privacidad · contacto