Acordes de Guitarra » M »Mago De Oz » Xanandra (Tab)

Xanandra
Mago De Oz

Letras, Acordes y Tabs para Guitarra, Bajo y Ukulele

  • C-G#--D#-A#  x4
    
    
    
    C                             G#
     Ahora que me he quedado solo, que me queda poco de ti.
    D#                         A#
     Solamente la culpa y un futuro que yo vendí.
    C                             G#
     Ahora que se ha acabado todo, casi antes de comenzar,
    D#                               A#
     voy buscando algunas respuestas pues no paro de preguntar.
    
    
    G#                    A#          C
     ¿Quién prescribe las pócimas de amor?
    F              Bb          G#
     Pa curarme de mi y lo que soy.
    D#                A#           G           C A# G#
     ¿Quién receta sonrisas por perder y dejar ir?
    
  • SIm                           SOL
    Ahora que me he quedado solo, que me queda poco de ti,
    RE                        LA
    Solamente la culpa y un futuro que yo vendí.
    SIm                           SOL
    Ahora que se ha acabado todo, casi antes de comenzar,
    RE                              LA
    voy buscando algunas respuestas pues no paro de preguntar.
    
    SOL                  LA          SIm
    ¿Quién prescribe las pócimas de amor
    SOL             LA           SIm
    para curarme de mi y lo que soy?
    SOL                           LA           SIm
    ¿Quién receta sonrisas por perder y dejar ir
    SOL              LA
    lo único que yo amé?
    
    RE                    LA   SOL                    SIm
    Y a pesar de que no estás, te llevo cosida a mi piel.
    
  • 1|------------------------------------------------------------------------
    2|---------------------------------------------8-------------------------
    3|----------8h10-8----------------------10v--10-8-10-8-----8--8----------------
    4|--8-10-8----------10-8------------------------------------10-10------------
    5|--------------------------10-8-10-6/8----------------------------------------
    6|--------------------------------------------------------------------------
    
    
    1|----------------11-13 (15)13--(20)-18-17-15--------------------------------
    2|--------11/-13-----------------------------18-16-15----15-16-18-16-15--
    3|-10/12----------------------------------------------17---------------17
    4|-----------------------------------------------------------------------
    5|------------------------------------------------------------------------
    6|------------------------------------------------------------------------
    
    
    1|-----------------------------181715------------------181715--------
    2|-15 16 18-16-15------------------151618161516----------151618161516--
    3|--------------------17/19--------------------------------------------
    4|--------------------------------------------------------------------
    
  • e. ---------------------------|
    B. -------8-------------------|
    G. ---8--8-8-10---------------|
    D. -10-10--------10-8---------|
    A. ------------------10-8----8|
    E. -----------------------8-6-|
    
    e. ----------------------------------11p13-13b15-13-11-13|
    B. -----11----------------------11p13--------------------|
    G. 10b12--10b12-10-8--8-10-10/12-------------------------|
    D. -----------------10-----------------------------------|
    A. ------------------------------------------------------|
    E. ------------------------------------------------------|
    
    e. -18p20-18-16-15-13---------------13-16-16-15-13----------|
    B. ------------------16-13--13-15-16--------------16-15-13--|
    G. -----------------------15------------------------------15|
    D. ---------------------------------------------------------|
    A. ---------------------------------------------------------|
    E. ---------------------------------------------------------|
    
  • +
    ¡Colabora con nosotros!
    Envíanos tu versión de esta canción

Letra de Xanandra
Ahora que me he quedado solo, que me queda poco de ti.
Solamente la culpa y un futuro que yo vendí.
Ahora que se ha acabado todo, casi antes de comenzar,
voy buscando algunas respuestas pues no paro de preguntar.
¿Quién prescribe las pócimas de amor?
Pa curarme de mi y lo que soy.
¿Quién receta sonrisas por perder y dejar ir?
Lo único que yo amé.
Y a pesar de que no estás, te llevo cosida a mi piel.
Tu recuerdo se ha instalado en mi a vivir.
Y aunque nunca volverás, busco en el trastero de mi
ese beso abandonado que nunca te di.
Ahora que vivo en el olvido. Ahora que vivo en el ayer,
que mi corazón se ha partido en miles de trocitos de ti.
¿Dónde esta la sonrisa que olvidé?
¿Quién derriba los muros que hace tiempo levante
para esconderme de mí?
Y a pesar de que no estás, te llevo cosida a mi piel.
Tu recuerdo se ha instalado en mi a vivir.
Y aunque nunca volverás, busco en el trastero de mi
ese beso abandonado que nunca te di.
Intermedio
¿Quién prescribe las pócimas de amor?
Pa curarme de mi y lo que soy.
¿Quién receta sonrisas por perder y dejar ir?
Lo único que yo amé.
Y a pesar de que no estás, te llevo cosida a mi piel.
Tu recuerdo se ha instalado en mi a vivir.
Y aunque nunca volverás, busco en el trastero de mi
ese beso abandonado que nunca te di.
Y a pesar de que no estás, te llevo cosida a mi piel.
Tu recuerdo se ha instalado en mi a vivir.
Y aunque nunca volverás, busco en el trastero de mi
ese beso abandonado que nunca te di.
Outro




[Xanandra chords][Xanandra cifra]
© LaCuerda.net · aviso legal · privacidad · es · en · pt · contacto