Acordes de Guitarra » M »Mago De Oz » Vodka 'n' roll (Tab)

Vodka 'n' roll
Mago De Oz

  • Letra y Acordes
    Em
    Vamonos de fiesta
                D
    la vamos a liar
                         Em
    vamos a curar la soledad .
    
    
    Bebe tus fracasos
                  D
    matalos con rock
                       Em
    tus miedo se ahogarán
    
    Em
    Beberemos sin parar
                     D
    bailaremos y al final
    
    no habra Dios
    
  • Tablatura
        F5    A#5   F5    C5        F5    A#5   F5      C5
    e. -5---5-6-8-6-5---5---------|-5---5-6-8-6-5-----5---|
    B. ---6-----------6---8-6-5---|---6-----------8-6---8-|
    G. -------------------------5-|-----------------------|
    D. ---------------------------|-----------------------|
    A. ---------------------------|-----------------------|
    E. ---------------------------|-----------------------|
    
        F5    A#5   F5    C5        A#    C5    C5      D5
    e. -5---5-6-8-6-5---5---------|-----------5-----------|
    B. ---6-----------6---8-6-5---|-------5-6---8-6-5-6---|
    G. -------------------------5-|-7-5-7---------------7-|
    D. ---------------------------|-----------------------|
    A. ---------------------------|-----------------------|
    E. ---------------------------|-----------------------|
    
        F5                           D#5 C5
    e. ------------------------------------|
    B. ------------------------------------|
    G. -------------------------------8--5-|
    
  • +
    ¡Colabora con nosotros!
    Envíanos tu versión de esta canción

Letra de Vodka 'n' roll
Vamonos de fiesta
la vamos a liar
vamos a curar la soledad .
Bebe tus fracasos
matalos con rock
tus miedo se ahogarán
Beberemos sin parar
bailaremos y al final
no habra Dios
que se mantenga en pie. (Kutxi Romero)
A ritmo de rock'n'roll
sacaremos a bailar
a las penas con una traición
Ven, levanta de una vez
y bebe hasta el amanecer
tu alma hoy tiene sed.
Ven, si el frio entra en tu piel
abrígate con un amor
bañado en vodka'n'roll.
Si te encuentras sola
si te encuentras mal
la luna es camarera de mi bar
las estrallas son strippers y gogos
al Sol nunca dejo entrar.
Beberemos sin parar
gastaremos en champagne
y despues haremos el amor.
escuchando por canción
tu linda raspiración
esto si que es rock'n'rol.
Ven, levanta de una vez
y bebe hasta el amanecer
tu alma hoy tiene sed.
Ven, si el frio entra en tu piel
abrígate con un amor
bañado en vodka'n'roll.
El doctor de la nostalgia
por fiestero me recetó
para la gripe del alma
vodka,amigos y rock'n'RON
hooooooo hoooooooo hooooooooo hhhhhhhhoooooohh
Ven, levanta de una vez
y bebe hasta el amanecer
tu alma hoy tiene sed.
Ven, si el frio entra en tu piel
abrígate con un amor
bañado en vodka'n'roll.
hooooooo hoooooooo hooooooooo hhhhhhhhoooooohh
hooooooo hoooooooo hooooooooo hhhhhhhhoooooohh



© LaCuerda.net · aviso legal · privacidad · contacto