Acordes de Guitarra » M »Mago De Oz » Santa Campaña (Tab)

Santa Campaña
Mago De Oz

Letras, Notas, Punteos, Tablaturas y Acordes de Guitarra (Tabs & Chords)

  • Letra y Acordes
    Am                     C   G  (4 veces)
    
    
    
    
     Am
    Cuando al atardecer
    
    los ultimos rayos del Sol
                         C    G
    jugueteaban a esconder
     Am
    las luces y el color del bosque del perder,
    
    
     C          G         Am
    algo se empieza a mover,
     C          G         Am
    algo a lo lejos se ve.
    
    
  • Tablatura
    HOLA QUE TAL A TODOS LOS HEAVY METALICOS
    ACA LES VA OTRA DE LAS BUENAS CANCIONES DE ESTE GRUPO QUE ESTA DE LA P.M
    
    
    'Las huellas que deja el heavy quedan tatuadas en el corazón...'
    
    
    Intro / Riff:
    		     x3			
    e|---------------------------------------------------------------------------|
    B|---------------------|-----------------------------------------------------|
    G|---------------------|---5---7---------------------------------------------|
    D|---7-----------------|---5---7---------------------------------------------|
    A|---7--------5--------|---3---5---------------------------------------------|
    E|---5--5--7-----8--7--------------------------------------------------------|
    
    		     x3			
    e|---------------------------------------------------------------------------|
    B|---------------------|-----------------------------------------------------|
    G|---------------------|---5-------------------------------------------------|
    D|---7-----------------|---5---5------------
  • Tablatura
    Gm
    D--7------------------------------------------5/7---
    A--7------------------------------------------5/7---
    E--5--5-7-8-7-5---5-7-8-7-5--5--5-7-8-7-5-----3/5---
    
    G-------------------------------------------------5--------
    D-------------------------------------------------5--5---7      x2
    A-------------------------------------------------3--5---7
    E--5--5-7-8-7-5---5-7-8-7-5--5--5-7-8-7-5------------3---5
    
    La segunda vez entra el violín y va algo así:
    
    E-5--5-7-8-7-5---5-7-8-7-5--5--5-7-8-7-5--10-12-13-12-10--10-12-13-12-10
    B-------------------------------------------------------------------------
    G-------------------------------------------------------------------------
    
    E-10---10-12-13-12-10
    B-------------------------
    G-------------------------
    
    
  • +
    ¡Colabora con nosotros!
    Envíanos tu versión de esta canción

Letra de Santa Campaña
Cuando al atardecer
los ultimos rayos del Sol
jugueteaban a esconder
las luces y el color del bosque del perder,
algo se empieza a mover,
algo a lo lejos se ve.
La lluvia hacia del mar un rumor
y el dios de las sombras se instalaba
la reina de la noche acudio,
su majestad La Luna bien acompañada
de una procesion de almas en pena
Portadores de luz,
Rosas en un ataud
ooooooooooooo.........
ooooooooooooo.........
Al frente dicen ver
a un vivo con una cruz
pues necesitan de el
para llevar la muerte
a quien le pueda ver
No abras a nadie mujer
no hasta el amanecer.
ooooooooooooooo.......
ooooooooooooooo.......
(Trozo instrumental)
Si los oyes llegar,
y tu alma quieres salvar
un oraculo dibuja ya,
reza, metete en el
y no escuches su voz.
La muerte te hara creer
que soy yo,"Cielo, abreme"
oooooooooooooooooooo......
oooooooooooooooooooo......
*******************
Dedicado a: Martin y a Pablo



© LaCuerda.net · Aviso Legal · Privacidad
DINAMICO