Acordes de Guitarra » M »Mago De Oz » Pensatorium (Tab)

Pensatorium
Mago De Oz

Letras, Acordes y Tabs para Guitarra, Bajo y Ukulele

  • C#m     G#m       C#m               G#m
    Llévame hasta ti, quiero vivir en tus labios,
    F#m          C#m             E                 B
    quiero ser la luz del sol que te despierte al dormir.
    C#m    G#m       C#m             G#m
    Grabaré tu voz entre mi piel y tus besos,
    F#m          C#m        E                 B
    te traeré brisa del mar para que bebas de mí.
    
    
    A               G#m
    Soy los sueños, soy la realidad,
    C#m               B
    soy la voz que en ti
    A             G#m
    juega con cambiar tu bien del mal.
    A       B        A
    Viviré dentro de ti,
    A       B        G#(si es mayor)
    dormiré dentro de tu ser.
    
  • Bm D X2
    
    CON FLAUTA(ADAPTADO PARA GUITARRA, LAS NOTAS DE GUITARRA ARPEGEADAS)
            Bm       D          G     A          F#m
    e|-------------10-9--------------------------------|
    B|---10-12-10------10--10-12------12-10------------|
    G|-11--------11------11-------9-11-------9-11-12---|
    D|--------------------------12---------12----------|
    A|-------------------------------------------------|
    E|-------------------------------------------------|
    
            Bm        D          Em      Bm     G
    e|--------------12-14--------14-15-14-----------------|
    B|---10-12----15-----15----15--------17-15--12-14-152-|
    G|-11-------------------14----------------------------|
    D|----------------------------------------------------|
    A|----------------------------------------------------|
    E|----------------------------------------------------|
    
    
    
  • +
    ¡Colabora con nosotros!
    Envíanos tu versión de esta canción

Letra de Pensatorium
Llévame hasta ti, quiero vivir en tus labios,
quiero ser la luz del sol que te despierte al dormir.
Grabaré tu voz entre mi piel y tus besos,
te traeré brisa del mar para que bebas de mí.
Soy los sueños, soy la realidad,
soy la voz que en ti
juega con cambiar tu bien del mal.
Viviré dentro de ti,
dormiré dentro de tu ser.
Sobre el arcoíris hay un sitio para ti,
de hilos hechos de libertad, por si te quieres venir.
Más allá de la verdad hay nubes de cristal,
lluvia echa de eternidad, vente conmigo a vivir.
Soñaré tu voz para que me hables de noche;
para que me den calor, susúrrame besos de amor.
Lloran soledad todos aquellos recuerdos
que se ahogaron de esperar el aire que hay en tu besar
Soy momento, soy eternidad ,
soy la locura en ti
soy lo nuevo, soy caducidad.
Soy Alicia en tu país,
el sombrerero pregunta por ti.
Sobre el arcoíris hay un sitio para ti,
de hilos hechos de libertad, por si te quieres venir.
Más allá de la verdad hay nubes de cristal,
lluvia echa de eternidad, vente conmigo a vivir.
¿Dónde estarán
esos ojos que busco en mis sueños?
Dime, ¿Dónde están
las palabras de amor que te di?
La oscuridad es la ausencia de luz en tus sueños.
La sombra es el camino que hay que recorrer.
La penumbra es de mudar de colores tu alma,
Ceguera es no saber qué camino elegir.
Sobre el arcoíris hay un sitio para ti,
de hilos hechos de libertad, por si te quieres venir.
Más allá de la verdad hay nubes de cristal,
lluvia echa de eternidad, vente conmigo a vivir.




[Pensatorium chords][Pensatorium cifra]
© LaCuerda.net · aviso legal · privacidad · es · en · pt · contacto
DINAMICO