Acordes de Guitarra » M »Mago De Oz » Pachamama (Tab)

Pachamama
Mago De Oz

Letras, Acordes y Tabs para Guitarra, Bajo y Ukulele

  • esto es solo lo que hace el violin
    0:05
    E ---------10-12---------------------------------------
    B ---12-10-------12-10--------------10-12-10-----------
    G -----------------------12-9-9----9---------10-9------
    D -----------------------------------------------------
    A -----------------------------------------------------
    E -----------------------------------------------------
    
    
    E ---------10-12---------------------------------------
    B ---12-10-------12-10--------------10-12-10-----------
    G -----------------------12-9-9----9---------10-9------
    D -----------------------------------------------------
    A -----------------------------------------------------
    E -----------------------------------------------------
    
    0:14
    E -------------------------------------------
    B ---------10-12-10----------------12-10-----
    G ------11----------11-9-9-9---9-12-----12-9-
    D ---12--------------------------------------
    A -------------------------------------------
    E -------------------------------------------
    
    E -
  • Mi primer tablatura: Pachamama de Mago de oz, donde la mayor parte
    de la melodia esta solo entre los trastes 7 y 10 y lo demas es pan comido,
    sales pues espero y la saquen con el ritmo original de Mohamed
    Pachamama. transcripcion de violin a guitarra
    
    INTRO:
    e ----------------------------
    B ----------------------------
    G ----------------------------
    D ----------------------------
    A ----2—0---------------------
    E ---------3--2-1-0-0---------
    
    e ----------------------------
    B ---------0------------------
    G -------0-----0--------------
    D ---2-2-----2---4------------
    A ----------------------------
    E ----------------------------
    
    00:06
    e ----7------9--10---7-------------------7-------------
    B ----0--10-------------10--8---------8-----10--8------
    G -----------------------------9-9-9---------------9---
    D -----------------------------------------------------   x2
    A -----------------------------------------------------
    E -----------------------------------------------------
    
    e ---------------7
  • Esta versión es para piano, flauta, violín, está toda la melodía
    excepto el solo de guitarra
    
    PACHAMAMA
    
    Si La re mi Si La Sol Mi Mi Mi Sol Si La Sol Mi
    Si La re mi Si La Sol Mi Mi Mi Sol Si La Sol Mi
    
    Re Fa# La Si La Sol Mi Mi Mi Mi Sol Si La Sol Mi
    Re Fa# La Si La Sol Mi Mi Mi Re Mi Mi
    
    
    Si La re mi Si La Sol Mi Mi Mi Sol Si La Sol Mi
    Si La re mi Si La Sol Mi Mi Mi Sol Si La Sol Mi
    
    Re Fa# La Si La Sol Mi Mi Mi Mi Sol Si La Sol Mi
    Re Fa# La Si La Sol Mi Mi Mi Re Mi Mi
    
    Si Si Si Re Si Re Si Re Si RE
    Si Si Si Re Si Re Si Re Si RE
    Sol Sol Sol Si Sol Si Sol Si Sol Si
    re do Si do Si La Sol La Sol Fa# Mi
    re do Si do Si La Sol La Sol Fa# Mi
    
    Si Si Si Re Si Re Si Re Si RE
    Si Si Si Re Si Re Si Re Si RE
    Sol Sol Sol Si Sol Si Sol Si Sol Si
    re do Si do Si La Sol La Sol Fa# Mi
    re do Si do Si La Sol La Sol Fa# re do Si La Sol Fa# Sol
    
    se reíte todo, Solo de guitarra, se repite la última parte.
    
    Espero que les sea de utilidad, visiten mi blog!
    
    eldeljuano.blogspot.com
  • +
    ¡Colabora con nosotros!
    Envíanos tu versión de esta canción






[Pachamama chords][Pachamama cifra]
© LaCuerda.net · aviso legal · privacidad · es · en · pt · contacto