Acordes de Guitarra » M »Mago De Oz » La voz dormida (Tab)

La voz dormida
Mago De Oz

Letras, Acordes y Tabs para Guitarra, Bajo y Ukulele

  • C                        G
    Soy de un sitio, de un lugar,
    
    Am           G
    de un tiempo que...
    
    F            Am
    llaman eternidad,
    
         Dm          G
    y al viento, mi hogar.
    
    
    
    C             G
    Donde la realidad
    
         Am      G
    la puedes cambiar
    
    
  • LA Voz Dormida
    
    violín
    00:04
      C  D   E G   E  D   A  B C  C  B  A   C  E  D
    E----------15--------17-19-20-20-19-17-20---------|
    B-13-15-17----17-15-----------------------17-15---|
    G-------------------------------------------------|
    D-------------------------------------------------|
    A-------------------------------------------------|
    E-------------------------------------------------|
            C5       G5        F5             C5 G5
    
      C  D   E  G  E  D G   D C  E   C  B
    E----------15-------15------------------|x2
    B-13-15-17----17-15----15-13-17-13-12---|
    G---------------------------------------|
    D---------------------------------------|
    A---------------------------------------|
    E---------------------------------------|
    
  • E----------15--------17-19-20-20-19-17-20---------
    B-13-15-17----17-15-----------------------17-15---
    G-------------------------------------------------
    D-------------------------------------------------
    A-------------------------------------------------
    E-------------------------------------------------
            C5       G5        F5             C5 G5
    
    E----------15-------15------------------
    B-13-15-17----17-15----15-13-17-13-12---
    G---------------------------------------
    D---------------------------------------
    A---------------------------------------
    E---------------------------------------
            C5       G5       A5       G5
    
    00:28
    E----------15--------17-19-20-20-19-17-20---------
    B-13-15-17----17-15-----------------------17-15---
    G-------------------------------------------------
    
  • LA Voz Dormida
    
    
    Mägo De Oz
    Guitarra 1...
    
    e)---------------|-------------|-------------|
    b)---------------|-------------|-------------|
    g)---------------|-------------|-------------|
    d)--5------------|--5----------|--3----------|
    a)--3--3-3-3 PM--|--5----------|--3----------|
    E)---------------|--3--3-3-3-PM|--1-1-1-1-PM-|
    
    e)------------|------------|-----------|-----------|
    b)------------|------------|-----------|-----------|
    g)--5---------|------------|--5--------|-----------|
    d)--5---------|--5---------|--5--------|--5--------|
    a)--3-3-3-3PM-|---5--------|--3-3-3-PM-|--5--------|
    E)------------|--3-3-3-PM--|-----------|--3-3-3-PM-|
    
    
  • bueno a ki tienen "La Voz Dormida" y estoy 99.9% seguro ke no
    tiene errores
    
    bueno a ki va
    
    intro Txus
    G||------|------|------|---------------------------------|
    D||------|------|------|---------------------------------|
    A||------|------|------|--3--3-3-3-3-3-3-3-3-3-3-3-3-3-3-|
    E||------|------|------|---------------------------------|
    
    
    
    ---------------------------------|---------------------------------|
    ---------------------------------|---------------------------------|
    ---------------------------------|---------------------------------|
    --3--3-3-3-3-3-3-3-3-3-3-3-3-3-3-|--1--1-1-1-1-1-1-1-1-1-1-1-1-1-1-|
    
    
    
    --------------------------------|---------------------------------|
    --------------------------------|---------------------------------|
    --3--3-3-3-3-3-3----------------|--3--3-3-3-3-3-3-3-3-3-3-3-3-3-3-|
    -----------------3--3-3-3-3-3-3-|---------------------------------|
    
    
    
    ---------------------------------|---------------------------------|
    ---------------------------------|-
  • Esta es una de las mejores canciones de mago espero que les guste
    
    Intro [0:00]
    
    Do-re-mi-sol-mi-re
    
    La-si-do-do-si-la-do-mi-re
    
    Do-re-mi-sol-mi-re-sol-re-do-mi-do-si
    
    2 veces
    
    [0:28]
    
    Do-re-mi-sol-mi-re
    
    La-si-do-do-si-la-do-mi-re
    
    Do-re-mi-sol-mi-re-sol-re-do-mi-do-si-mi-si-la
    
    [0:46]
    
    Do-re-re#-sol-do    do-re#-re-si
    
    
    [0:50]
    
    Soy de un sitio, de un lugar, (do-do-do-do-mi-fa-sol)
    De un tiempo que...           (la-sol-fa-sol)
    Llaman eternidad,             (fa-fa-fa-sol-la-do)
    Y al viento, mi hogar         (do-fa-mi-do-re)
    
    Donde la realidad             (do-do-do-do-mi-fa-sol)
    La puedes cambiar             (la-sol-fa-sol)
    Si sabes preguntar            (fa-fa-fa-sol-la-do)
    Y no das nada por hecho.      (fa-fa-fa-mi-re-do-mi-fa-mi-re)
    
    ¿a qué sabe el dolor?            (sol-fa#-mi-si-re-re)
    ¿es eterno el amor?              (re-re-do-re-mi-re)
    ¿la amargura es mujer?           (sol-fa#-mi-si-re-re)
    ¿de qué están hechos los sueños? (mi-re-do-si-la-sol-si-la)
    ¿cuánto pesa un adiós
  • +
    ¡Colabora con nosotros!
    Envíanos tu versión de esta canción

Letra de La voz dormida
Soy de un sitio, de un lugar,
de un tiempo que...
llaman eternidad,
y al viento, mi hogar.
Donde la realidad
la puedes cambiar
si sabes preguntar
y no das nada por hecho.
¿A qué sabe el dolor?
¿Es eterno el amor?
¿La amargura es mujer?
¿De qué están hechos los sueños?
¿Cuánto pesa un adiós?
¿Por qué es muda la Paz?
¿Puede dormir la traición?
Pregúntate!!!
Y verás que mi voz
vive en ti, soy La Voz Dormida
de los que el Santo Oficio
consiguió callar.
Si me quieres seguir,
volaremos sobre el arco iris,
donde mueren las penas
y nacen los besos en flor.
Mi voz vive en ti!!!
He visto Roma caer,
y a Egipto morir,
y a Jesús de Nazaret,
expirar sin saber
que en su nombre iba a nacer
una secta de poder,
traficantes de ilusión,
mercaderes de almas rotas.
¿Por qué es sorda la fe?
¿y ciego el que cree?
¿Sabe un rezo besar?
¿Cuánto cobra el celibato?
¿Está en venta el altar?
¿o lo alquiláis
para uso de un dictador?
en uno Hitler folló!!
Y verás que mi voz
vive en ti, soy La Voz Dormida
de los que el Santo Oficio
consiguió callar.
Si me quieres seguir,
volaremos sobre el arco iris,
donde mueren las penas
y nacen los besos en flor.
Mi voz vive en ti!!!
He bajado hasta tu infierno,
y a tus miedos pregunté
¿dónde viven los fracasos?
y si aceptan un talón.
He subido hasta su cielo,
su Dios no me recibió,
a su derecha esta Franco
y entre los dos hay un hueco
para Pinochet.
Y verás que yo soy La Voz Dormida,
sígueme, mi voz vive en ti !!!
Y verás que mi voz
vive en ti, soy La Voz Dormida
de los que el Santo Oficio
consiguió callar.
Si me quieres seguir,
volaremos sobre el arco iris,
donde mueren las penas
y nacen los besos en flor.
ohhhh ohh ohh ohh oh ohhhhhh
Y verás que mi voz
vive en ti, soy La Voz Dormida
de los que el Santo Oficio
consiguió callar.
Si me quieres seguir,
volaremos sobre el arco iris,
donde mueren las penas
y nacen los besos en flor.
Mi voz vive en ti!!!
He ardido en mil hogueras,
me violaron en Perú,
he vivido el holocausto,
la inquisición, apartheid,
dictaduras, poder, pederastia,
la marca del Diablo es la Cruz.
Al final de la rola no estoy muy convencido de los acordes, asi que si le
algún error les agradeceria me lo hicieran saber, bye...




[La voz dormida chords][La voz dormida cifra]
© LaCuerda.net · aviso legal · privacidad · es · en · pt · contacto