Acordes de Guitarra » M »Mago De Oz » La marcha turca (Tab)

La marcha turca
Mago De Oz

  • Tablatura
    Aquí esta el solo de Jorge Salán completo, o
    por lo menos la marcha turca completa, que
    es una composición de Mozart.
    No encontré el tab por ningún lado así que decidí
    hacerlo yo mismo. Estoy seguro de que esas
    son las notas, pero si se les hace más fácil
    tocarlo en otro traste allá ustedes.
    Esta es la manera en que se me hizo más fácil.
    
    
    e ----------------------0---------7-5-4-5-7-5-4-5-8-
    B --------------3-1-0-1----6-5-4--------------------
    G --4-2-1-2-5---------------------------------------
    D --------------------------------------------------
    A --------------------------------------------------
    E --------------------------------------------------
    
    e -5--8—-7--5-----5--7--5-----5--7--5---------------
    B -------------8-----------8-----------8—-7--5------
    G --------------------------------------------------
    D --------------------------------------------------
    A --------------------------------------------------
    E --------------------------------------------------
    
    e ----
  • Tablatura
    Aqui les va la Marcha Turca de Mozart creo que esta un 99% bien,
    Mago la interpreta excelente con la guitarra
    como en Guadalajara, estuvo genial.
    Bueno pues aqui la tienen ojala les guste…
    saludos al kalaverin HIJO D TU P…,
    saludos tambien a Daniel y Ale q sigan asi los 2 eh¿?¿?
    y al amor d mi vida Monica q sin ella no puedo vivir.
    
    
    LAS PARTES SE REPITEN SAQUEN LA MARCHA TURCA ORIGINAL
    Y VERAN Q ES CASI IGUAL.
    
    
    Parte 1
    e|----------------------------|---------7----------7---------8~|
    B|----------------------------|-----------10-9-10----10-8-10---|
    G|---------------7---------9--|10-9-8-9------------------------|
    D|-9----------10---10-9-10----|--------------------------------|
    A|---12-11-12-----------------|--------------------------------|
    E|----------------------------|--------------------------------|
    
    Parte 2
    e|---------------------------------------------------|
    B|----10-12-10-----10-12-10-----10-10h12p10----------|
    G|-12-----------12-----------12--------------12-11-9~|
    D|-----
  • Tablatura
    B:|------------1---3-1-0-1---|-6-5-4-5-----------------|----
    G:|----4-2-1-2---------------|-------------------------|----
    D:|--------------------------|-------------------------|----
    
    
    e:|-5-8-7-5---5-7-5---5h7p5-------
    B:|---------8-------8-------8-7-5~
    G:|-------------------------------
    D:|-------------------------------
    
    
    e:|------------------------0-|---------7-5-4-5-7-5-4-5-|-8~~
    B:|------------1---3-1-0-1---|-6-5-4-5-----------------|----
    G:|----4-2-1-2---------------|-------------------------|----
    D:|--------------------------|-------------------------|----
    
    
    e:|-5-8-7-5---5-7-5---5h7p5-------
    B:|---------8-------8-------8-7-5~
    G:|-------------------------------
    
  • Piano (Teclados)
    ke onda ps aki mi primera transcripcion
    he estado buscando las notas para flauta
    de esta cancion y nada mas no las encuentro asi ke
    decidi subirlas
    espero ke la agregen por ke me costo trabajo sacarla
    
    si la sol# la do
    re do si do mi
    fa mi re# mi
    si la sol# la
    si la sol# la do
    fa# sol# la# sol#
    fa# sol# la# sol#
    fa# sol# la# sol# fa# fa re# 2x
    mi fa sol sol
    la si la sol mi    rapido 2x
    
    cambia de tono
    
    re mi fa fa
    
    me falta sacar esta pekeña parte
    despues se repite
    y pues eso es todo
    espero ke les sirva de algo
  • +
    ¡Colabora con nosotros!
    Envíanos tu versión de esta canción





© LaCuerda.net · aviso legal · privacidad · contacto