Acordes de Guitarra » M »Mago De Oz » Gerdundula (Tab)

Gerdundula
Mago De Oz

Letras, Acordes y Tabs para Guitarra, Bajo y Ukulele

  • Esta es mi primera transcripcion, parece que está buena
    
    Guitarra
    
    ----0-------0------0-------0------0-------0------0-------0-
    -------3/5------------3/5------------3/5------------3/5----
    -2--------------2--------------2--------------2------------
    -----------------------------------------------------------  x 3
    -----------------------------------------------------------
    -----------------------------------------------------------
    los acordes durante el violín son: Am  F  G
    
    En algunas partes se toca lo mismo que el violin en la guitarra
    solo que una octava menos (12 tastes abajo)
    
    Violín
    -----12-----(12)----12-13-12----12----12-13-12----12----12-13-12----12-
    -----------------------------15----------------15----------------15----
    -14--------------------------------------------------------------------
    -----------------------------------------------------------------------
    -----------------------------------------------------------------------
    -----------------------
  • Esta es mi primer transcripcion.
    (La canción, la sacó una amiga,
    Xenia, Gracias por la cación )ñ.ñ
    
    No es para teclado, es para flauta:
    ES muy sencilla, no creo que batallen
    
    Las AGUDAS estan en minúsculas
    Las GRAVES están en mayúsculas
    
    
    
    SI do SI LA SI
    SI do SI LA SI
    SI do SI LA SI
    SI re do SI LA SOL FA
    SOL FA MI FA MI RE MI MI MI
    MI FA SOL FA MI FA MI RE MI
    MI MI MI MI MI MI MI    (2 VECES)
    
    
    MI SI MI SI MI SI MI SI MI
    SI re do SI LA SOL FA
    MI SI MI SI MI SI MI SI MI
    FA SOL FA MI RE         (2 VECES)
    
    
    SOL FA MI FA MI RE MI MI MI
    MI FA SOL FA MI FA MI RE MI
    MI MI MI MI MI MI MI
    
    (Se repiten las primeras dos estrofas)
    
    
    SOL FA MI FA MI RE MI MI MI
    MI FA SOL FA MI FA MI RE MI MI MI
    MI FA SOL FA SOL LA SOL LA SI SI SI
    LA SI do SI do re do re
    mi SI mi
    
    
    
    
    
    
    
    Quiero felicitar a Xenia
    por esta canción, que queda
    muy bien xD
    
    Y pues, espero les sirva de algo ñ.ñ
  • +
    ¡Colabora con nosotros!
    Envíanos tu versión de esta canción






[Gerdundula chords][Gerdundula cifra]
© LaCuerda.net · aviso legal · privacidad · es · en · pt · contacto
DINAMICO