Acordes de Guitarra » M »Mago De Oz » El rincón de los sentidos (Tab)

El rincón de los sentidos
Mago De Oz

Letras, Acordes y Tabs para Guitarra, Bajo y Ukulele

  • e|---------------------------------------
    B|---------------------------------------
    G|---------------------------------------
    D|---------------------------------------
    A|--7-7-7-7-7-7-5-7-----------------2-----
    E|------------------7-5-5-5-5-3-5-3---3-
    
    ------------------------------------------
    ------------------------------------------
    ------------------------------------------
    -------------7-9--------------------------
    -7-7-7-7-7-7-----7-10-9-10-9-10-9-10-9-9--
    ------------------------------------------
    
    
    E5                        D5
    Hace algún tiempo que yo naufragué
     A5                  B5     G5
    entre la playa de su juventud
      E5                 D5
    
  • Esto es una complementacion de la transcripcion de "juan"
    (que esta muy bien echa) pero le faltaba el solo
    asi que aqui se los dejo.!
    venga no es dificil, suerte!!
    
    
    
    
    
    ][ Solo 2:25][
    
    --------------------------------15s17-15--15s17-15--------------
    -12-9---------17v-15-17-15---15--------------------17-15-17-----
    ------10-9v----------------16-----------------------------------
    ----------------------------------------------------------------
    ----------------------------------------------------------------
    ----------------------------------------------------------------
    
    2:34
    
    ------------------------------------------------------------------------
    -17s19-17-15--17-15--15-17-15-----15--------15--------------------------
    ------------17-----17--------17-15--17-15-17--17-15-14-15-17-14-10-12v---
    ------------------------------------------------------------------------
    ------------------------------------------------------------------------
    ----------------------------------------------------
  • +
    ¡Colabora con nosotros!
    Envíanos tu versión de esta canción

Letra de El rincón de los sentidos
Hace algún tiempo que yo naufragué
entre la playa de su juventud
a la deriva se me hundió un amor
y mi vida se encalló
Hace ya tiempo que emborraché
todos los versos que un día canté
con el aliento que da una mujer
que ya no volverá
Hice inventario de lo que perdí
Eché las cuentas de lo que invertí
años de lucha, noches sin dormir
y ahora soy músico y te tengo a ti
Quiero cantar quiero gritar
quiero vivir en libertad
quiero morir cerca de ti
quiero encontrar lo que perdí
Por las esquinas de alguna canción
vende su alma a veces la ilusión
pero jamás la mía venderé
rockero moriré
Abrigo derrotas y les doy calor
con una rima que cosí a mi voz
maquillo nostalgias y les doy color
con pentagramas que pinté
Quiero cantar quiero gritar
quiero vivir en libertad
quiero morir cerca de ti
quiero encontrar lo que perdí
Para hacer el efecto, mantenganse en E5 y con la palanca
empujenla poco a poco y sueltenla poco a poco para al
ultimo jalarla y empezar el solo
El solo se acompaña asi:
DESPUES EN ORDEN DESCENDENTE:
Quiero cantar quiero gritar
quiero vivir en libertad
quiero morir cerca de ti
quiero encontrar lo que perdí
Quiero cantar quiero gritar
para que entiendas que yo fui
entre canciones y una voz
SE ACOMPAÑA ASI EN LOS HOO O OOO Y
HASTA EL FINAL EN ORDEN DESCENDENTE:
este es el solo del final:
dudas, quejas, aclaraciones, ayuda, arriba esta mi correo




[El rincón de los sentidos chords][El rincón de los sentidos cifra]
© LaCuerda.net · aviso legal · privacidad · es · en · pt · contacto
DINAMICO