Acordes de Guitarra » M »Mago De Oz » El que quiera entender que entienda (Tab)

El que quiera entender que entienda
Mago De Oz

Letras, Notas, Punteos, Tablaturas y Acordes de Guitarra (Tabs & Chords)

  • Letra y Acordes
    Am               F
    Cuanto he de esperar
    C                 G
    para al fin poder hallar
    Am              F
    la otra mitad de mi,
    C                  G
    que me acompañe a vivir
    
    
    Nade un tiempo en un mar
    de apariencia y ahogué el amor
    no se puede ocultar 
    el perfume de una flor
    
    F                  C
    Cuanto me cuesta sobrevivir
    G        Am
    cuanto sonreir
    F                     C
    
  • Letra y Acordes
    Am               C
    Cuanto he de esperar
    C                 G
    para al fin poder hallar
    Am              C
    la otra mitad de mi,
    C                  G
    que me acompañe a vivir
    
    
    Nade un tiempo en un mar
    de apariencia y ahogué el amor
    no se puede ocultar
    el perfume de una flor
    
    F                  C
    Cuanto me cuesta sobrevivir
    G        Am
    cuanto sonreir
    F                     C
    
  • Tablatura
    e|--------------------------------------|---------------|
    B|-------13--12--10h12p10h12p10h12p10---|---8---6---5---|
    G|---12---------------------------------|---------------| x2
    D|--------------------------------------|---------------|
    A|--------------------------------------|---------------|
    E|--------------------------------------|---------------|
    
    
    INTRO ELÉCTRICA + RITMO DEL VERSO [00:52]:
                            x3            
    e|--------------------------|------------------|
    B|-------13--12--10--(10)^--|---8^---6^---5^---|
    G|---12---------------------|------------------|
    D|--------------------------|------------------|
    A|--------------------------|------------------|
    E|--------------------------|------------------|
    
    e|--------------------------|------------------------------------------------|
    B|-------13--12--10--(10)^--|-------13--15--15/17^--15^--13^--12^------------|
    G|---12---------------------|---12-------------------------------------------|
    
  • Tablatura
    ---------
      /  -->  Slide 
      h  -->  hammer-on
      p  -->  pull-off
      B  -->  bending
    ~~~  -->  vibrato
    
    
      TEMPO:  155 
    ---------------
    
    
    ***************************************************************************
    *                               Guitarra 1                                *
    ***************************************************************************
    
                         ******
                          0:51
                         ******
       1                  2                          3
    
  • Tablatura
    Parece que ahora solo aceptan canciones completas pero a esta cancion solo 
    le hace falta esta parte y un poco del solo, asi que de todos modos ahi les va.
    
    Esta es la parte del violin y flauta arregrado para guitarra.
    
    Todas las notas estan aqui solo tienen que escuchar la cancion para el tiempo.
    
    
    (3:24)
    
    E -----0-1--3-5---6--6-6-8-6--5---------------------------------
    B -3-3----------3---------------3-3-------8-10----8-8-----8-----
    G -----------------------------------9-10-------7-----10----10-7
    D --------------------------------------------------------------
    A --------------------------------------------------------------
    E --------------------------------------------------------------
    
    E --------------------------------------------------------------
    B -11--10-8-11-10--8----10-8------------6------11-10-8-11--10-8-
    G -------------------10-------10-9-5-7----7-5-------------------
    D --------------------------------------------------------------
    A -----------------
  • Tablatura
    e//--0--8--7--(5555555555)----/---0--8--7--5------------//
    B//---------------------------/---------------8--6--5---//
    G//---------------------------/-------------------------//
    
    El RIFF 1 se toca 2 veces luego...
    
    RIFF 2
                      x2
    e//--0--8--7--(5555555555)----/---0--8--7--5------------//
    B//---------------------------/---------------8--6--5---//
    G//---------------------------/-------------------------//
    
                      x2
    e//--0--8--7--(5555555555)----/---0--8--10--12--10--8--10-//
    B//---------------------------/---------------------------//
    G//---------------------------/---------------------------//
    
    Am               F
    Cuanto he de esperar
    C                 G
    
  • Tablatura
    Esta es la version Folktergeist en concierto y el es la mejor (la tab y la rola) xD
    Mas tabs en camino. Disfruten y saquen!!! y apoco no es verdad la frase de hasta abajo?
    
     (4:31) – Solo de guitarra electrica
    E|-----------------------------------10h12h13p12p10----10---------------------
    B|--------------------------10-11-13----------------13----13b15~--13b15b13p10-
    G|------------------9-10-12---------------------------------------------------
    D|----------8-10-12-----------------------------------------------------------
    A|--8-10-12-------------------------------------------------------------------
    E|----------------------------------------------------------------------------
    P.M ................................
    ---------------------------------------------------------------13-17p13-------------
    ------------------------------------------------------------15----------15----------
    ---12b14b12p10----10-12-12b14-12b14~-b12p10--------------14----------------14-------
    ---------
  • Tablatura
       Am5    C5     G5    D5     E5      F5    B5
    G/------/--5---/-----/--7---/--9---/--10--/-----/
    D/--7---/--5---/--5--/--7---/--9---/--10--/--9--/
    A/--7---/--3---/--5--/--5---/--7---/--8---/--9--/
    E/--5---/------/--3--/------/------/------/--7--/
    
    Riff 1
    E/-------------------------------------------------------------------/
    b/-10-13-12-10h12-10h12-10h12-10h12-10---10-13-12-10h12-10h12-10h12--/
    g/-------------------------------------------------------------------/
    
    E/--------------------------------/
    b/-10h12-10---10-13-12-10---------/
    g/------------------------12-10-9-/
    
    E/------------------------------------------------------------------/
    b/-10-13-12-10h12-10h12-10h12-10h12-10---10-13-12-10h12-10h12-10h12-/
    g/------------------------------------------------------------------/
    
    E/---------------------------------------/
    
  • Tab p/Bajo
        ****** MAGO DE OZ ******
    El que quiera entender que entienda
        Finisterra / Folktergeist
    
    
    Bajo: Salva
    Teclado: Sergio Cisneros
    
    
    
    Intro Clavicordio
    |----------|----------|----------|------|
    |----------|----------|----------|------|
    |----------|----------|----------|------|
    |----------|----------|----------|------|
    
                                      3/8        4/4
    |----------|----------|----------|----------|-----------------|
    |----------|----------|----------|----------|-----------------|
    |----------|----------|----------|----------|-----------------|
    |----------|----------|----------|----------|-3-3-3-3-3-3-3-3-|
    
    |-----------------|-----------------|-----------------|-----------------|
    |-----------------|-----------------|-----------------|-----------------|
    |-0-0-0-0-0-0-0-0-|-----------------|-3-3-3-3-3-3-3-3-|-----------------|
    |-----------------|-1-1-1-1-1-1-1-1-|-----------------|-3-3-3-3-3-3-3-3-|
    
    |-----------------|-----------------|---------
  • +
    ¡Colabora con nosotros!
    Envíanos tu versión de esta canción
  • Tutorial
    HD
    video tutorial de el que quiera entender que entienda de mago de oz
    14:11

Letra de El que quiera entender que entienda
Cuanto he de esperar
para al fin poder hallar
la otra mitad de mi,
que me acompañe a vivir
Nade un tiempo en un mar
de apariencia y ahogué el amor
no se puede ocultar
el perfume de una flor
Cuanto me cuesta sobrevivir
cuanto sonreir
sin poder quitarme el antifaz
que me disfraza de normal.
Y volveré a buscarte
alli hasta donde estes
tan solo quiero amarte
y poder tener
alguien en que apoyarme
alguien en quien volcar
todo el amor que cercenó el que diran...
No mas miedo a entregar
mis labios sin antes mirar
no mas miedo a acariciar
nuestros cuerpos y soñar.
el armario y el divan
y si hay que luchar
luchar es educar
que en asuntos del corazon
no hay raglas de dos
que somos distintos, somos iguales
no mas guetos, alza la voz
Y volvere a buscarte...
Y cuando llegue el final
el otoño de nuestro amor
yo te esperaré.
Mientras vive y lucha por tener
derecho a elegir
con que cabeza tu almohada compartir
Orgulloso de ser quien eres
y no como deberías ser
Cuanto me cuesta sobrevivir...
Y volvere a buscarte...



© LaCuerda.net · Aviso Legal · Privacidad