Acordes de Guitarra » M »Mago De Oz » Creo (Tab)
  • Letra y Acordes
    C              G      Am       G
    Creo e la amistad que no pide, da
    F           Am  Dm        G
    Creo en el amor sin condición
    C                   G          Am      G
    Creo en el la humildad del que sabe ganar
    F            Am          Dm         G
    Creo en el honor sin uniformes ni Dios
    
            Am       Em      F       G
    No creo en un altar que salve mi fe
           Am         G      F                Am   Em
    Ser honesto es mejor que un cielo lleno de himnos
         Am            Em      F        G
    No creo en un lider que dirja mis pies
        Am             G     F           G
    Mi rey es mi voluntad mi patria mi hogar
    
            C           G         Am              F  G
    Se que existe un lugar mas alla entre las estrellas
    
  • Tablatura
    E: ---------------------5--------------------------------------
    B: --------5--6--8---8----8--6--8----8--6-5-6-8----6-6--5-5----
    G: --5--7----------------------------------------5------------7
    
    
    E: --------------------5--------------------------------8---7/8
    B: -------5--6--8---8----8--6--8--8--6 -5-6-8---6-5------------
    G: --5--7-------------------------------------5------5---------
    
    
    
    E:--8--7--5-----------5--------8--7--5-----------5----------------
    B:----------5-8--8--------5-5-----------5---8-8------8-6-5-----5--
    G:----------------------5----------------------------------7-5---7
    
    
    E:--8--7--5------------------5-----5-5-7-8-5-7----10--12--10---15
    B:----------5--8-8----8-6-8-----8---------------13----------------
    G:--------------------------------------------------------     x2
    
    
  • Tablatura
              C        G       Am              G
    e|--0-0---0----3-3---3----0-0---0----3-3---3-----|
    B|--------1----------0----------1----------0-----|
    G|--------0----------0----------2----------0-----|
    D|--------2----------0----------2----------0-----|
    A|---3-3--3----------2-----0-0--0----------2-----|
    E|--------------3-3--3----------------3-3--3-----|
    
             Creo en la amistad que no pide más
    
              F         Am          F          G          G        G
    e|--1-1---1----0-0---0----1-1---1----3-3---3--|--3-3--3--3-3---3|
    B|--------2----------1----------2----------0--|-------0--------0|
    G|--------3----------2----------3----------0--|-------0--------0|
    D|--------3----------2----------3----------0--|-------0--------0|
    A|--------1-----0-0--0----------1----------2--|-------2--------2|
    E|---1-1--1----------------1-1--1-----3-3--3--|--3-3--3---3-3--3|
    
             Creo en el amor sin condición.
    
    
  • Tablatura
    MIRE EL SOLO DE ESTA CANCION Y NO ME GUSTO
    SUS TRANSCRIPCIONES ANTERIORES,POR ESO ME DEDIQUE A SACARLA
    YO MISMO,SE LA DEDICA A LA BANDA NACHA C K,ARANDAS JALISCO
    JerrY
    
    E------------------------5--7—7/8--8p7p5--8-----------------
    B----------5-5/8--8/5----6------------------5---5h6p5-------
    G----4-5-7------------7-------------------------------7-----
    D--7--------------------------------------------------------
    A-----------------------------------------------------------
    E-----------------------------------------------------------
    
    E-----------------------------------------------------------
    B--------5--5/8---8/5----8-----5-------5--------------------
    G--4-5-7--------------7---7-5----5-4-----4--2---------------
    D-7---------------------------------------------------------
    A-----------------------------------------------------------
    E-----------------------------------------------------------
    
    E-----------------------------------------------------------
    B-8p5--------------8(vibrato)------
  • Piano (Teclados)
    CREO:
    
    Intro:
    Do re mi sol mi re
    La si do
    do si la do mi re
    Do re mi sol mi re sol re do mi do si
    
    Do re mi sol mi re
    La si do
    do si la do mi re
    Do re mi sol mi re sol re do mi do si mi si la
    
    
    1min 06s:
    do si la mi sol sol
    sol la do mi mi
    do si la mi sol sol la sol fa mi re do mi re
    do si la mi sol sol
    sol fa sol la la sol
    sol la la si do la si si do re mi reeeee ¡sol!
    
    (1min 36s) Estribillo:
    Do re mi sol mi re
    La si do
    do si la do mi re
    Do re mi sol mi re sol
    re do mi do si do si la
    (siguiendo lo que hace la voz) si do si la sol
    
    Do re mi sol mi re
    La si do
    do si la do mi re
    Do re mi sol mi re sol
    re do mi do si do si la mi re
    
    
    2min 34s:
    mi re do do si do la
    la si do sol fa mi  re do
    do re mi mi re do fa fa mi fa re
    do mi fa sol sol mi do la
    la si do sol fa mi  re do
    do si la si do si do re do re mi re
    mi fa sol fa mi la la si
    
    (3min 23s) para terminar el estribillo unas cuantas veces.
    
    bueno, esto es todo, hasta otra, y CALIFICADME!!!!
  • +
    ¡Colabora con nosotros!
    Envíanos tu versión de esta canción

Letra de Creo
Creo e la amistad que no pide, da
Creo en el amor sin condición
Creo en el la humildad del que sabe ganar
Creo en el honor sin uniformes ni Dios
No creo en un altar que salve mi fe
Ser honesto es mejor que un cielo lleno de himnos
No creo en un lider que dirja mis pies
Mi rey es mi voluntad mi patria mi hogar
Se que existe un lugar mas alla entre las estrellas
Donde nacen los versos que yo nunca pude encontrar,
donde el alma de a luz, y al parir de ella nazcan besos
Con labios de esperanza, yo creo en ti, creo en mi.
Se que existe un lugar donde allar un beso perdido,
donde nacen los sueños y maman oportunidad.
Donde hacerte el amor sea morir dentro de tu cuerpo,
creo en una caricia, creo que existe ese lugar.
Creo en la pasión ella es mi voz,
creo que al final te encontrare.
cualquier corrección a mi correo, tuanis gente



© LaCuerda.net · aviso legal · privacidad · contacto