Acordes de Guitarra » M »Mago De Oz » Brisa de otoño (Tab)

Brisa de otoño
Mago De Oz

  • Letra y Acordes
    Intro: Em C Am B
    
    Em
    Sentada frente al mar
              C
    buscando una estrella pasar
        Am
    las olas te dicen
                      B
    dame otra oportunidad
    
    (Entra la batería con un tempo mayor más de rock dur)
    
    Em
    Llorando se abraza fuerte
              C
    al primer beso que le dió
       Am
    un muñeco llora
                      B       C-D (2 toques de cada uno)
    
  • Tablatura
    ---------------------------------------------------------------------
    
    
    e--------------------------------------------------------  esta parte
    B-3--3-5-6-5-3--------3-5-6-5-3------3-5-6-5-3-----------  se toca en
    G--------------3-------------------------------2------2--  todas las
    D--------------------------------4------------------4----  estrofas.-
    A--------------------------------------------------------  1ª guitarra
    E--------------------------------------------------------
    
    e------------------------------10-13-12----------------------
    B------------6-8-6----------------------15-15---------------- 2ª
    G------------------7-5-7----------------------8.9.10-8-6-8-10 guitarra
    D------------------------------------------------------------
    A------------------------------------------------------------
    E------------------------------------------------------------
    
    (esta parte es suave)
    
    Dm
    
  • +
    ¡Colabora con nosotros!
    Envíanos tu versión de esta canción

Letra de Brisa de otoño
Sentada frente al mar
buscando una estrella pasar
las olas te dicen
dame otra oportunidad
(Entra la batería con un tempo mayor más de rock dur)
Llorando se abraza fuerte
al primer beso que le dió
un muñeco llora
su sueño no se cumplió
Sus ojos se pierden lejos
al primer dia que conocio
la luna me ha dicho
que una estrella dio su voz.
ESTRIBILLO (más alegre y con acordes mayores)
Cuando las alas del amor
rocen tus labios y una flor
amanezca una mañana en tu habitación
Si sientes muy dentro de ti
en las entrañas una calida voz
no la dejes escapar esta vez
(Batería 4x4)
(Rasgando como al principio)
Sentada frente al mar
viendo a su estrella descansar
la brisa acaricia su carita de cristal
(tempo rock duro)
Cuando las alas del amor
rocen tus labios y una flor
amanezca una mañana en tu habitacióooooooooooooon
(tempo rock despacio)
Si sientes muy dentro de ti
en las entrañas una calida voz
(tempo rock duro hasta el final)
no la dejes escapar esta veeeeeeeeeeeeeeeeeez
veeeeeez No la dejes
escapar esta vez.
No no no
no la dejes
escapar esta vez,
no la dejes
No no no
es la brisa
Brisa de Otoño
Brisa de Otoño
no la dejes
no la dejes
escapar
esta vez......
================
FICHA TECNICA
================
Canción: Brisa de Otoño
Año: 1989
Album: The Best Oz (2006)
Transcrito por: Alejandro S. Valdezate (aka Lex Sparrow)
Compuesta por: Txus Di Fellatio
Propiedad de: Mägo de Oz
LaCuerda.net suenan un poco raras (más o menos como su estuvieran
pisando el rabo a un gato) ya que sus transcriptores admiten ser
novatos. Espero que esta nueva transcripción hagan las delicias
de los guitarristas aficionados al sonido Mägo de Oz.



© LaCuerda.net · aviso legal · privacidad · contacto
DINAMICO