Acordes de Guitarra » M »Mago De Oz » Astaroth (Tab)

Astaroth
Mago De Oz

Letras, Acordes y Tabs para Guitarra, Bajo y Ukulele

  • A A# A Gm A A# A Gm
    A A# A Gm A A# A C
    
    A                 A#  A                      Gm  A#
    De la noche de los tiempos de tu oscuridad
    A                   A#    A                   C
    He regresado a buscar un don para la humanidad
    A  Gm  A
             Y no pronuncias mi nombre
    A  Gm  A
             aunque bien sabes quien soy
    A  Gm  A
             De tu soberbia y tu odio
    A5 D5 C#5 D5 E5 D5 C#5 A#5 A5
    el reflejo alimentado soy
    A A# A Gm A A# A C
    
    A                 A#  A                      Gm  A#
    Soy el eco de tu ira, el espejo en que
    A                   A#    A         C
    
  • Intro
    
    E----------------------------------------------------
    A-2-(2-2)-2-3-3-2-(2-2)-2-0-2------------------------
    D-4-(4-4)-4-5-5-4-(4-4)-4-0-4------------------------x2
    G----------------------------------------------------
    B----------------------------------------------------
    E----------------------------------------------------
    Todo lo que esta entre parentesis es con palm mute
    
    Violin y flauta
    
    E-------------------------------------------------------------
    A-------------------------------------------------------------
    D-------------------------------------------------------------
    G-------------------------------------------------------------
    B-12-12-13-12-------------------12-12-12-13-12-10-13-10-13-12-
    E-------------11-10-11--13-11-10------------------------------
    
    E-------------------------------------------------------
    A-------------------------------------------------------
    D------------------------------------------------------
    G------------------------------------------------
  • Aqui mando el solo con la escala que faltaba en el otro solo
    Era una escala disminuida con p.m
    
    E|----------------------------------|-----------------|
    B|----------------------------------|-----------------|
    G|-6-7-7h9-7-6----------------------|-<7>~---6-7-9b~--|
    D|---------------7h8p7h8p7h8p7h8p7~-|-----------------|
    A|----------------------------------|-----------------|
    E|----------------------------------|-----------------|
    
    -------------------------------|---10-9-6-10p9p6----10p9p6-----
    ------------6-8-10-8h10p8p6-5~-|-----------------10--------10--
    ---x6-x7-x9--------------------|-------------------------------
    -------------------------------|-------------------------------
    -------------------------------|-------------------------------
    -------------------------------|-------------------------------
     Gargle - - - - - - - - - - - - - - - - - - - - - -
    --------*****----****----***----***--*************-----------------------
    -----10h11p10--8h10p8--6h8p6--5h6p5—-3-5-3-2-3-2--
  • aqui esta esta tab de la mejor cancion de mago
    
    
    Intro
    
    E----------------------------------------------------
    A-2-(2-2)-2-3-3-2-(2-2)-2-0-2------------------------
    D-4-(4-4)-4-5-5-4-(4-4)-4-0-4------------------------
    G----------------------------------------------------
    B----------------------------------------------------
    E----------------------------------------------------
    
    E----------------------------------------------------
    A-2-(2-2)-2-3-3-2-(2-2)-2-0-2------------------------
    D-4-(4-4)-4-5-5-4-(4-4)-4-0-4------------------------
    G----------------------------------------------------
    B----------------------------------------------------
    E----------------------------------------------------
    Todo lo que esta entre parentesis es con palm mute
    
    Violin y flauta
    
    E-------------------------------------------------------------
    A-------------------------------------------------------------
    D-------------------------------------------------------------
    G------------------------------------
  • ---------------------------------------------------------------------------
    
    ---------------------------------------------------------------------------
    
    ---------------------------------------------------------------------------
    
    * - Gargle es una tecnica que consiste en golpear el puente Floyd Rose de
    tu guitarra o en su defecto la palanca tremolo para crear una vibracion
    entre notas.
    
    [] - Las armonias naturales (nat. harmonic) se hacen colocando tu dedo
    suavemente en la cuerda (sin pisarla) sobre el fierro que indica el traste
    y dando el puaso.
    
    <> - Las armonias artificiales (art. harmonic) se hacen dando el puaso de
    tal forma que al momento del puaso, después de que pega la pua contra la
    cuerda, la carne de tu dedo pulgar pegue la cuerda tambien.
    
    x - Muting es un sonido en el cual las notas parecen estar cortadas o
        mutadas.
    
  •                                      W
    G||-------|-------|-------|-------|-------------------|
    D||-------|-------|-------|-------|-------------------|
    A||-------|-------|-------|-------|-------------------|
    E||-------|-------|-------|-------|--5----------------|
    
    
      Q    E  E  E   E  E   E     W
    ---------------------------|-------------------|
    ---------------------------|-------------------|
    ---------------------------|-------------------|
    --L----5--5--5s--6--6s--5--|--5----------------|
    
    
      Q    E  E  E   E  E   E     Q    E  E  H
    ---------------------------|----------------------|
    ---------------------------|----------------------|
    ---------------------------|----------------------|
    --L----5--5--5s--3--3s--5--|--5----5--5--5--------|
    
    
      Q    E  E  E   E  E   E     Q    E  E  E  E  Q
    ---------------------------|------------------------|
    ---------------------------|------------------------|
    ---------------------------|------------------------|
    --L----5--5--5s--6--6s--5--|--5----5--5--
  • D||----------------------------------:|  | <- [La primera vez se toca]
    A||------------------6-6-6-6-6-6-6-6-:|  |    [esto..                ]
    E||--4-4-4-4-4-4-4-4-----------------|| \|
                                             >
    G||----------------------------------|| /
    D||----------------------------------:|    <- [y la segunda vez esto...]
    A||----------6-------8---------------:|
    E||--4-------------------------------||
    
    [4:16] se repite Riff de Introducción
    
    [4:29] Solo de guitarra
    
    G||----------------------------------||
    D|:----------------------------------||
    A|:----------------------------------||
    E||--5-5-5-3-5-----------------------||
    
    G||----------------------------------||
    D||----------------------------------||
    
  • Mayúsculas = notas graves
    Minúsculas = notas agudas
    
    FA-FA-SOL-FA
    LA-SOL-LA-SI-LA-SOL-FA
    FA#-FA#-SOL-FA#-Mi
    SOL-MI-SOL-FA
    
    LA-LA-SI-LA
    do-SI-do-re-do-SI-LA-SOL
    LA-SI-LA-SOL-LA-SI (Rápido)
    
    De la noche de los tiempos
    de tu oscuridad,
    he regresado a buscar
    un don para la humanidad.
    (LA-LA-LA-SOL-LA)
    Y no pronuncias mi nombre (LA-LA-LA-SOL-LA)
    aunque bien sabes quién soy, (LA-LA-LA-SOL-LA)
    de tu soberbia y tu odio
    el reflejo alimentado soy.
    (SOL-do-SI-do-re-do-SI-SOL-LA)
    
    FA-FA-SOL-FA
    LA-SOL-LA-SI-LA-SOL-FA
    FA#-FA#-SOL-FA#-Mi
    SOL-MI-SOL-FA
    
    LA-LA-SI-LA
    do-SI-do-re-do-SI-LA-SOL
    LA-SI-LA-SOL-LA-SI (Rápido)
    
    Soy el eco de tu ira,
    el espejo en que
    tu avaricia se refleja
    y me da poder.
    (LA-LA-LA-SOL-LA)
    Fluyo a través de las vidas (LA-LA-LA-SOL-LA)
    que no consiguen saber (LA-LA-LA-SOL-LA)
    dónde encontrar la salida
    que abre la puerta del mal y el bien.
    (SOL-do-SI-do-re-do-SI-SOL-LA)
    
    Ven hacia mí
    y déjame morar en ti,
    soy el deseo,
    lo oscuro que hay en ti. (FA-do-LA-MI-SI-SOL-MI-LA)
    
    C
  • +
    ¡Colabora con nosotros!
    Envíanos tu versión de esta canción

Letra de Astaroth
De la noche de los tiempos de tu oscuridad
He regresado a buscar un don para la humanidad
Y no pronuncias mi nombre
aunque bien sabes quien soy
De tu soberbia y tu odio
el reflejo alimentado soy
Soy el eco de tu ira, el espejo en que
tu avaricia se refleja y me da poder.
Fluyo a través de las vidas
que no consiguen saber
Donde encontrar la salida
que abre las puertas del mal y el bien
Estribillo:
Ven hacia mi y déjame morar en ti
Soy el deseo lo oscuro que hay en tiiiiii C
Compro tus sueños por tu alma tu dios ¿cuánto da?
Soy el que soy el portador de luz
Cubra tu manto mi luz y mi amor,
suave es el óbito y dulce este dolor.
Tómame y el viento hará una canción
con el fuego eterno que sellará nuestra unión
Toma mi sangre mézclala bébela o quémala arde en la llama
Pues solo así podrás adoraarme Ab
Haz lo que digo pues esta es la ley
No me creas experimenta Bebe pues no hay no hay otro meediooo
Estribillo x2 veces:
Ven hacia mi y déjame morar en ti
Soy el deseo lo oscuro que hay en tiiiiii C
Compro tus sueños por tu alma tu dios ¿cuánto da?
Soy el que soy el portador de luz (repetir una 2ª vez)
Melodía-Solo-Fin: F C Dm Am A# Am A# C




[Astaroth chords][Astaroth cifra]
© LaCuerda.net · aviso legal · privacidad · es · en · pt · contacto