Acordes de Guitarra » M »Mago De Oz » Alma (Tab)
  • Letra y Acordes
    Em       G
    Atras en la inquietud
    C        Em 
    Que tiñe toda piel
    G        C            D
    Con los tonos de un final
    Em        G
    Deje al dolor volar
    C         Em
    Hacia mi libertad
    G    C           D
    Me cito la eternidad
    Em        G
    Mi cuerpo se canso
    C         Em
    Mi vida bostezo
    G        C             D
    Pero mi mente sigue en pie
    Em        G
    No es una cuenta atras, 
    
  • Letra y Acordes
    (Em G Am C  D)  (x2)
    D Em G F#m D Em
    Em C9 Em D(sus4)
    
    Em       C9
    Atras en la inquietud
    Em        D
    Que tiñe toda piel
    Em        C9           D
    Con los tonos de un final
    Em        C9
    Deje al dolor volar
    Em         D
    Hacia mi libertad
    Em    C9          D
    Me cito la eternidad
    Em        Em
    Mi cuerpo se canso
    Em        G D Em
    Mi vida bostezo
    
  • Letra y Acordes
  • Tab p/Bajo
    Alma
    
    G|---------------------------------------------|
    D|---------------------------------------------|
    A|---------------------000000000-33333333-44-5-|
    E|-111111111-333333333-------------------------|
    
    -----------------------------------------------|
    -----------------------------------------------|
    -----------------------000000000-33333333-44-5~|
    --1111111111-333333333-------------------------|
    
    ----------------|
    ----------------|
    ------3-2-------|
    -3-4-----5-3-4--|
    
    min 0.37
    Esta parte casi no suena,
    Si quieren la tocan... da lo mismo
    
    ---------------|
    ---------------|
    --2---1---2—-1-|
    ---—3---3—-3---|
    
    min 0.46
    
    --------------------------------------------|---------|
    --------------------------------------------|---------|
    ---------------8-5--5~7-77777--------55555--|---------|
    -6~-555555555------------------88888--------|-555-666-|
    
    min 0.56
    
    ----------------------------------------------------------|
    ----------------------------------------------------------|
    -66666-4-66666-4-66
  • +
    ¡Colabora con nosotros!
    Envíanos tu versión de esta canción

Letra de Alma
Atras en la inquietud
Que tiñe toda piel
Con los tonos de un final
Deje al dolor volar
Hacia mi libertad
Me cito la eternidad
Mi cuerpo se canso
Mi vida bostezo
Pero mi mente sigue en pie
No es una cuenta atras,
Es otro ciclo mas
Es un principio no es el fin
MI alma hoy quiere volar
Ser agua, ser brisa del mar
Y ser la flor que en tu jardin
Trepando llegue hasta ti
Es tan duro saber
Que en tu cuerpo tambien
Hay fecha de caducidad
Se bien que he de librar
Una batalla mas
Que mañana otra habra
Me puso la salud
Los cuernos con tu Dios
Y mi sentencia dicto
En mis tinieblas hay
Una luz que al final
Arrulla mi corazon
MI alma hoy quiere volar
Ser agua, ser brisa del mar
Y ser la flor que en tu jardin
Trepando llegue hasta ti
MI alma hoy quiere volar
Romper cadenas y soñar
y con tu voz oirte hablar
me llevo amor, me llevo paz



© LaCuerda.net · aviso legal · privacidad · contacto