Acordes de Guitarra » M »Mago De Oz » Al-mejandría (Tab)

Al-mejandría
Mago De Oz

  • Tablatura
    Buen solo y buen album...aqui esta el solo de Al mejandria kabrones!!! Disfruten =D
    
    (3:11) – Solo de guitarra electrica
    E|------------------------------------------|--12-13-10-12----10-------------------
    B|------------------------------------------|--------------13----12-13-10-12----10-
    G|--------------7-10-7---------7------------|--------------------------------12----
    D|----------6-9--------9-6-7-9---9-7-6-9-7--|--------------------------------------
    A|------5-8---------------------------------|--------------------------------------
    E|--4-7-------------------------------------|--------------------------------------
    
    -------------------------------12-13-10-12----10-----------------------------------
    -------------------------------------------13----12-13-10-12----10-----------------
    ---10-12-9-10----9-------------------------------------------12----10-12-9-10----9-
    --------------12---10-12-9-10-------------------------------------------------12---
    -----------------------
  • Tablatura
    INTRO
    X4 (junto con el violin)
    
    ---------------
    ---------------
    ---------------
    --12----12-12--
    --12----12-12--
    --10----10-10--
    
    VIOLIN 1 (intro)
    X4
    
    -------------13h15p13-12-13-----
    ----------15----------------15--
    -------14-----------------------
    -12-15--------------------------
    --------------------------------
    --------------------------------
    
    -------------13h15p13-12-----
    ----------15-------------15--
    -------14--------------------
    -12-15-----------------------
    -----------------------------
    -----------------------------
    
    VIOLIN 2 (0:15)
    X2
    
    -----------------------------------------
    -------------------13-13h15p13-12-13-----
    -------------14-14-------------------14--
    -7xxxx----14-----------------------------
    -7xxxx-----------------------------------
    -5xxxx-----------------------------------
    
    -----------------------------
    ----------13-13h15p13-12-----
    ----14-14----------------14--
    -14--------------------------
    -----------------------------
    -----
  • +
    ¡Colabora con nosotros!
    Envíanos tu versión de esta canción





© LaCuerda.net · aviso legal · privacidad · contacto
DINAMICO