Acordes de Guitarra » L »Líbido » Hambre (Tab)

Hambre
Líbido

Letras, Acordes y Tabs para Guitarra, Bajo y Ukulele

  •        Em            C            F         Em
    e|--------------|------------------|--------------|---|
    B|--------------|------------------|--------------|---|
    G|--------0---0-|--------0------0--|-------2---2--|-0-|
    D|----------2---|------2---2-------|---------3----|-2-|
    A|------2-------|----3-------3-----|-----3--------|-2-|
    E|---0----------|------------------|--1-----------|-0-|
    
    
    Em        C
    Hambre de ti
       F           Em
    de tu mirada vil
    Em        C       F          Em
    no se vivir si tu no estas aqui
    C       B     Cm     G
    Donde estas ahhhhh ahhhhh ?
    
    
    Em          C
    
  • FA #
    Hambre de ti 
          DO 
    De  tu  mirada vil
    FA                   MI
    No se vivir si tu no estas aqui
                      FA #    DO
    ¿Dónde estas ?    *       *
    FA
    Me arrastrare
           MI
    Quiero estar a tus pies
    FA #                 DO
    Desangrare todo mi corazón
                 FA               MI
    Por un beso mi alma entregare *
    FA # -DO-FA
    …………Ah
    MI
    Olvidare
    
  •     Em   C    F    D#   Gsus4   F#sus4   Fsus4     A   B   E
    E|--0----0----1----3------0-------0-------0----|---0---2---0---|
    B|--0----1----1----4------3-------2-------1----|---2---2---0---|
    G|--0----0----2----3------4-------3-------2----|---2---4---1---|
    D|--2----2----3----x------5-------4-------3----|---2---4---2---|
    A|--2----3----3----x------5-------4-------3----|---0---4---2---| 
    E|--0----3----1----x------0-------0-------0----|---0---2---0---|       
    
    
    Em        C
    Hambre de ti
       F         Em
    De tu mirada vil
    Em        C
    No se vivir
       F             Em
    Si tu no estas aquí
    
               C  D#        Gsus4   F#sus4
    ¿Donde estaa aaaa aaaaaaaasss?
    
  • |----------------------------------------------
    |----------------------------------------------
    |-------0------------0---------------2---------
    |-----------------2----2-----------------------
    |----2-----0-2-3------------------3-----0------
    |--0-----------------------3-2-1----------0----
    
    
    LA nota FA#*  es asi, las 'X' son las ke se pisan :
    
      2do traste
    1|-----------------------------------------
    2|--x--------------------------------------
    3|----x------------------------------------
    4|------x----------------------------------
    5|------x----------------------------------
    6|-----------------------------------------
     
     -Es como un Fa# pero sin pisar la primera ni la sexta
      Cuerda. y la nota Fa* es lo mismo solo que un traste
    
  • +
    ¡Colabora con nosotros!
    Envíanos tu versión de esta canción

Letra de Hambre
Hambre de ti
de tu mirada vil
no se vivir si tu no estas aqui
Donde estas ahhhhh ahhhhh ?
Me arrastrare
quiero estar a tus pies
desangrare todo mi corazon
por un beso mi alma entregare ahhhhh ahhhhhhhhhhhh
Olvidare
mi larga humillacion
te besare con toda codicion
al infierno mi alma entregare
Como no creer en ti
Como ser hombre sin ti ahhhhh ahhhhh
Hambre de ti
de tu mirada vil
no se vivir si tu no estas aqui
Donde estas ahhhhh ahhh ahhhhh ahhh?
Como no creer en ti
Como ser hombre sin ti ahhhhh ahhhhh ahhhhh [2x]




[Hambre chords][Hambre cifra]
© LaCuerda.net · aviso legal · privacidad · es · en · pt · contacto