Acordes de Guitarra » L »Líbido » Despertar (Tab)

Despertar
Líbido

Letras, Acordes y Tabs para Guitarra, Bajo y Ukulele

  • DO m #     LA M        Si M
    Aún no entiendo este duro lugar
    DO m #    LA M    Si M
    Donde el viento habita
    DO m #    LA M    Si M
    Donde todo es tan fugaz
    
    Calmaré la fiebre y el dolor
    Hallaré tu herida
    Sólo espera un poco más
    
    Luces ciegan hoy tu caminar
    Vas ardiendo en vida
    Vas tratando de luchar
    
    Reconoce tu cuerpo al pasar
    Sólo intenta gritar
    Tal vez alguien te oirá
    
    MI M     SI m
    
  •         E-----------4------------4---4-----------------
            B--6-6--4----4----6-6--4---4-4--6-6-4-6-7-8-9--
            G--6-6--4-4---4---6-6--4-----4--6-6-4-6-7-8-9--
            D--6-6--4---------6-6--4-----4--6-6-4-6-7-8-9--
            A-------------------------------4-4---4-5-6-7--
            E----------------------------------------------
    
            E--4---4--5-5---7-7----
            B--4s5-5--5-5---7-7----
            G--4s6-6--6-6---8-8----
            D--4s6-6--7-7---9-9----
            A--4---4--7-7---9-9----
            E---------5-5---7-7----      X 3
    
            E--4---4--5-5---7-7--2-2-2--
            B--4s5-5--5-5---7-7--2-2-2--
            G--4s6-6--6-6---8-8--3-3-3--
            D--4s6-6--7-7---9-9--4-4-4--
            A--4---4--7-7---9-9--4-4-4--
            E---------5-5---7-7--2-2-2--
    
  • +
    ¡Colabora con nosotros!
    Envíanos tu versión de esta canción

Letra de Despertar
Aún no entiendo este duro lugar
Donde el viento habita
Donde todo es tan fugaz
Calmaré la fiebre y el dolor
Hallaré tu herida
Sólo espera un poco más
Luces ciegan hoy tu caminar
Vas ardiendo en vida
Vas tratando de luchar
Reconoce tu cuerpo al pasar
Sólo intenta gritar
Tal vez alguien te oirá
Tú... ya no puedes más
Tus recuerdos lanzarás
A un abismo sin final
Tú ya no puedes más, ya no quieres mirar
Tus latidos se aceleran
Intentando olvidar
Que la vida pase y que todo cambie
Mientras sólo aguardes...despertar
Mansas aguas hoy te salvarán
Sentirás la vida
Que ilumina tu cantar
Los escombros señas del dolor
Que llevó tu estigma
Van perdiéndose en el mar




[Despertar chords][Despertar cifra]
© LaCuerda.net · aviso legal · privacidad · es · en · pt · contacto
DINAMICO