Acordes de Guitarra » L »Líbido » Culpable (Tab)

Culpable
Líbido

Letras, Notas, Punteos, Tablaturas y Acordes de Guitarra (Tabs & Chords)

  • Letra y Acordes
    Intro:G-Em-C-Gx2
    G                    Em
    No me he sentido culpable
    C                    G      (F#//G)
    de no entregarte un poco más
    G                     Em
    de haber llegado muy tarde
    C           G          G//D G//D
    y de tener que explicar
    
    G                    Em
    No me he sentido culpable
    C                   G       (F#//G)
    de no acercarme un poco más
    G                  Em
    de relajar mi semblante
    C              G    G//D G//D
    y defender mi lugar
    
    G         Em       C       G
    
  • Letra y Acordes
    ------->>>>>> gfranco_y_o@hotmail.com  <<<<<<<>---
    
                'LA MUSICA LA TIENES Q SENTIR'
    
    
                               Culpable
                                Libido
               654321
    G --->     320033
    Em -->     022000
    CM -->     332010
    Em7,13/F#  202030
    Em7 -->    022030
    D5#  -->   X688XX     <----ESTOS SON LOS ACORDES Q
                               ESTAN EN EL TEMA...
    
    
    G                 Em
     no me he sentido culpable
    C                 Em7,13/F#
    
  • Tablatura
           G                  Em           C              G
    |-------12-12----------10-12-----------10-------------------------
    |---12--12-12-------12----12------10p12--12-12h10-----------------
    |---12--------12-12-------------------------------12-12----------
    |---12------------------------------------------------------------
    |-----------------------------------------------------------------
    |-----------------------------------------------------------------
           G                  Em           C              G
    |----10----10----10-12--15-15-15-15-17-15---19-18-17--15----------
    |-------12-12-12-12-12--15-15-15-15-17-15-------------------------
    |-------------------------------------------19-18-17--16-------
    |----------------------------------------------------------------
    |--------------------------------------------------------------
    |--------------------------------------------------------------
    
    DE AHI VIENE ESTA ESTROFA
    G                    Em      C                    G      (F#//G)
    No me he sentido culpable  de no entregarte un poco más
    |--7------------------------8---------------------------6p7------
    |--8------------------------8---------------------------7p8------
    
  • Tablatura
            G       Em      Am7     CMaj7/G
    
    E|------3-------0--------0--------0----|
    B|------3-------0--------1--------0----|
    G|------0-------0--------0--------0----|
    D|------0-------2--------2--------2----|
    A|------2-------2--------0--------3----|
    E|------3-------0--------0--------3----|
    
       G            Em               Am7             CMaj7/G
    E|-10----------12-12------------10-12-12-------10--------------------
    B|-12----12-12---------------12----------10h12----12-12h10-----------
    G|-12-12------------12-12-12-------------------------------12-12-12--
    D|-------------------------------------------------------------------
    A|-------------------------------------------------------------------
    E|-------------------------------------------------------------------
    
    
       G             Em             Am7       CMaj7/G
    E|-10----------12-12-15-15-15-15-15-17-15-19-18-17-15~-|
    
  • Tablatura
    D/-----------------------------------------------------------------
    A/-----------------------------------------------------------------
    E/-----------------------------------------------------------------
    
    
    
    e/---10----10-10-12-12--15-15---15-15-15-17-15-19-18-17-15---------
    b/---12-12----12-12-12--13-13---------------------------12---------
    g/---12-12-------12-12---------------------------------------------
    D/-----------------------------------------------------------------
    A/-----------------------------------------------------------------
    E/-----------------------------------------------------------------
    
    
    (PRIMERA ESTROFA)
    
    e/---7------
    b/---8------
    g/---9------
    D/---9------
    
  • Tab p/Bajo
    Bueno esta es mi primera transcripcion, la cancion es muy buena!
    Una de mis favoritas, Libido es una gran banda peruana
    APOYEMOS AL ROCK NACIONAL!
    La cancion en si, se basa en tres tonos distintos,
    bueno yo lo he sacado en el primero y segundo, solo escuchenla y
    siganle el ritmo.
    Que fluya x)!
    
    
    
    
    E-3--3-3-3---0--0-0-0-------------3--3-3-3
    A-----------------------3--3-3-3----------
    D-----------------------------------------
    G-----------------------------------------
    
    
    
    E--3--3-3-3--0--0-0-0------------3--3-3-5-3--
    A----------------------3--3-3-3--------------
    D--------------------------------------------
    G--------------------------------------------
    
    
    E-------------------------------------------------
    A-----------7-77777-------------------------------
    D-5-55555------------10-10101010--10/5-55555------
    G-------------------------------------------------
    
    
    
    
    
    
    BUeno eso es toda la cancion espero que les halla gustado y
    cualqier cosa,corrinjanla, aunq esta bien y
    es bastante facil de sacar
  • +
    ¡Colabora con nosotros!
    Envíanos tu versión de esta canción

Letra de Culpable
No me he sentido culpable
de no entregarte un poco más
de haber llegado muy tarde
y de tener que explicar
No me he sentido culpable
de no acercarme un poco más
de relajar mi semblante
y defender mi lugar
Estoy pensando en ir,y no puedo
Estoy tratando de ver algo mejor
Estoy pensando en ti y no me afecta
Estoy tratando de ver algo mejor
No me he sentido culpable
de alejarme así nada más
perdona se me hizo tarde
quizá me tenga que largar



© LaCuerda.net · Aviso Legal · Privacidad
DINAMICO