Acordes de Guitarra » L »Líbido » Cicuta (Tab)

Cicuta
Líbido

Letras, Acordes y Tabs para Guitarra, Bajo y Ukulele

  •    Bm   A#
    E|--7----6----|
    B|--9----8----|
    G|--9----8----|
    D|--7----7----|
    A|--7----6----|
    E|--7----6----|
    
    
    Bm
       Ya no me trates mal
    A#
       Me esta sangrando el cuerpo
    Bm
      Entiende por favor
    A#
      Lo que yo estoy pidiendo
    
    Bm
      Voy buscando un lugar
    
  •   Bm               Cm                 Bm Bm Bm (rapido)
    e--3-------3--------2------2----------3--------------
    b--4----------4-----3----------3------4--------------
    g--5----5-----------4---4-------------5--------------
    d--5----------------4-----------------5--------------
    a--3----------------2-----------------3--------------
    E--3----------------2-----------------3--------------
    
    RIFF 1
    -------------------------------------------------
    --8/--8/----6------------8/--8/----6-------------
    ----------------8---5------------------8---4-----
    -------------------------------------------------
    -------------------------------------------------
    -------------------------------------------------
    (se repite varias,  veces hasta q comienzan a cantar)
    
    y la estrofa se toca asi...
       
    RIFF 2
    
  •   Bm               A#
    e--7-------7--------6------6---------
    b--7----------7-----6----------6-----
    g--7----7-----------7---7------------
    d--9----------------8----------------
    a--9----------------8----------------
    E--7----------------6----------------(BIS)
    
    RIFF PRINCIPAL
        Rapio    normal     rapido    normal
    -------------------------------------------------
    -------------------------------------------------
    ---9b^-9b^-----9-7--------9b^-9b^------9-7-------
    ------------------9~-----------------------8~----
    -------------------------------------------------
    -------------------------------------------------(bis)
      se acompaña con las notas Bm A#
    
      Ya no me trates mal
      Me esta sangrando el cuerpo
    
  •           A#
    
    
    e:--------7---------:
    B:--------7---------:
    G:--------7---------:
    D:--------9---------:
    A:------- 9---------:
    E:--------7---------:
    
    
    
    
    
              Gm
    
    e:--------6---------:
    B:--------6---------:
    G:--------7---------:
    D:--------8---------:
    
  • +
    ¡Colabora con nosotros!
    Envíanos tu versión de esta canción
  • Tutorial
    HD
    Cicuta - LIBIDO (tutorial)
    2:56

Letra de Cicuta
Ya no me trates mal
Me esta sangrando el cuerpo
Entiende por favor
Lo que yo estoy pidiendo
Voy buscando un lugar
Donde pueda descansar
Mira donde estoy……
Discutes lo que soy
Discutes lo que soy
Me arrancas las entrañas
Perdonen pero yo
Si vendería mi alma
Quiero que seas mi prostituta natural
me dejare robar
Llévate mi sangre para brindar
Voy buscando un lugar
Donde pueda descansar
Mira donde estoy……
Quiero que seas mi prostituta natural
me dejare robar
Llévate mi sangre para brindar




[Cicuta chords][Cicuta cifra]
© LaCuerda.net · aviso legal · privacidad · es · en · pt · contacto