Acordes de Guitarra » L »la Ley » Tierra (Tab)

Tierra
la Ley

  • Letra y Acordes
    LA ley A Chile.
    
    
    
    LAm         MI         SOL         RE
    Tierra que en el tiempo has quedado postergado en vientos 
    lejanos,pasados,amados 
    Tierra que no entiendo y me olvidas cuando salgo al mundo 
    portando tu nombre soñando 
    
    
    LAm                 SOL   RE  
    Lejos del ayer aquí estoy extrañándote 
    lejos del ayer aquí estoy recordando tu calor.
    
    
    LAm     MI             SOL       RE
    Tierra que has sufrido el martirio de las manos 
    del odio armado de odio 
    tierra que se olvidan las canciones que por ti darían 
    
  • Letra y Acordes
    Am                  C              G
    Tierra que en el tiempo has quedado
           E
    postergada en vientos
    Am       C        G     D 
    lejanos pasados amados
    
    Am                 C
    Tierra que no entiendo
              G             E
    y me olvidas cuando salgo al mundo
    Am       C           G     D
    portando tu nombre soñando
    
    Am
    
    Am                       D         E
    Lejos del ayer aqui estoy extrañandote
    Am                       D         E
    Lejos del ayer aqui estoy extrañandote tu calor
    
  • Tablatura
           Am          C          G           E            Am
    1|-----------|-----------|----------|-----------|-5-----------
    2|-----------|-------1---|-------3--|-------0---|---5---------
    3|-------5---|-----0---0-|-----4--4-|-----1---1-|-----5-------
    4|-----7---7-|---2-------|---5------|---2-------|-------7-----
    5|---7-------|-3---------|-5--------|-2---------|---------7---
    6|-5---------|-----------|----------|-----------|-----------5-
    
    
          Am           C           G          E
    1|---------------|---------------|--------------|---------------
    2|---------------|-------1-------|-------3------|-------0-------
    3|-------5-------|-----0---0-----|-----4--4-----|-----1---1-----
    4|-----7---7-----|---2-------2---|---5------5---|---2-------2---
    5|---7-------7---|-3-----------3-|-5----------5-|-2-----------2-
    6|-5-----------5-|---------------|--------------|---------------
    Tierra que en el tiempo has quedado postergada en vientos 
            Am               C             G               D
    1|---------------|---------------|--------------|-2--------2----
    2|---------------|-------1-------|-------3------|---3------3----
    
  • +
    ¡Colabora con nosotros!
    Envíanos tu versión de esta canción

Letra de Tierra
Tierra que en el tiempo has quedado
postergada en vientos
lejanos pasados amados
Tierra que no entiendo
y me olvidas cuando salgo al mundo
portando tu nombre soñando
Lejos del ayer aqui estoy extrañandote
Lejos del ayer aqui estoy extrañandote tu calor
Tierra que has sufrido
el martirio de las manos
del odio armado de odio
Tierra que se olvida
las canciones que por ti darian
las gracias a la vida un dia mas
Lejos del ayer aqui estoy recordando tu calor
Lejos del ayer aqui estoy revelando mi amor
Arrimada en el sur...
Asi le sigues todo el verso
y en donde empieza a cantar Sha na na na,Aqui estoy
le das con les acordes Am D E



© LaCuerda.net · aviso legal · privacidad · contacto
DINAMICO