Acordes de Guitarra » L »la Ley » The Corridor (Tab)

The Corridor
la Ley

Letras, Notas, Punteos, Tablaturas y Acordes de Guitarra (Tabs & Chords)

  • Letra y Acordes
    A#      C         Dm
    Step inside the corridor
    A#      C         Dm
    feel your soul invave your senses
    A#       C        Dm
    spirite at the gates of winter
    A#       C       Dm
    ready for the seasons countdown
    A#       C        Dm
    So it goes, the gate is open
    A#        C       Dm
    all Your past remains in silence
    A#         C     Dm
    but your future is unsure
          A#     C     Dm     A#   C  Dm       F#m   G    A
    you plan to go away...
    
    
    CORO:
    
    
  • Letra y Acordes
    SI ----------------------1-------------3------|
    sol--------3-----------0---0---------2---2----|
    RE -----3----3-------------------0------------|
    la --1--------------3-------------------------|
    MI -------------------------------------------|
    
    P2
    
    MI  --10--12---13---12---10------10--10--------|
    SI  -------------------------------------------|
    sol -------------------------------------------|
    RE  -------------------------------------------|
    LA  -------------------------------------------|
    MI  -------------------------------------------|
    
    para empezar la prime guitarra k toke la parte 1 (P1) dos veces y en seguida k toke la
    segundo gutarra la parte 2 (P2) ok y esto dice asi
    
    A#     C         Dm
    Step inside the corridor
    
  • Tablatura
    este es el tab de la cancion,
    el otro no esta mal pero se escucha mejor asi
    espero que les sirva de algo.
    
    en realidad es con teclado pero con guitarra
    se escucha bien
    
    
    e--------------------------------------------
    b--------------------------------------------
    g--------------------------------------------
    d-------8------------10----------------12----
    a-----8---8-------10----10----------12-------
    e---6-----------8----------------10----------
    
    
    
    e--------------------------------------------
    b--------------------------------------------
    g--------------------------------------------
    d-------8------------10----------------12----
    a-----8---8-------10----10----------12-------
    e---6-----------8----------------10----------
    
    
    esto se sigue repitiendo mientras la otra guitarra
    hace esto
    
    
    e--------------------------------------------
    b--------------------------------------------
    g---5/7-----7/9------9/10--9/7--7--5-5/7-----
    d---------------------------------------
  • Tablatura
       Bb       C        D        Bb       C        D
    e|-----------------------------------------------------|
    B|--------------1--------3-----------------1--------3--|
    G|-----3------0---0----2----------3------0---0----2----|
    D|---3---3-----------0----------3---3-----------0------|
    A|-1--------3-----------------1--------3---------------|
    E|-----------------------------------------------------|
    
      ...............................................................
    Gtr. 1
       Bb       C        D        Bb       C        D
    e|-----------------------------------------------------------|
    B|--------------1--------3-----------------------1--------3--|
    G|-----3------0---0----2----------------3------0---0----2----|
    D|---3---3-----------0----------------3---3-----------0------|
    A|-1--------3-----------------------1--------3---------------|
    E|-----------------------------------------------------------|
    Gtr. 2                                                       |
    e|-10-------12-------13-12-10----10-10-----------------------|
    B|-----------------------------------------------------------|
    
  • +
    ¡Colabora con nosotros!
    Envíanos tu versión de esta canción

Letra de The Corridor
Step inside the corridor
feel your soul invave your senses
spirite at the gates of winter
ready for the seasons countdown
So it goes, the gate is open
all Your past remains in silence
but your future is unsure
you plan to go away...
Never tought that your mind was
away never threw away your wantings
never kept you by my side
now you belong
you are obviously mine
Jinny come down
Jinny come down
close your desires or burn them in fire
Jinny come down
Jinny come down and feel me..
***el segundo verso y el coro son los mismos acordes***



© LaCuerda.net · Aviso Legal · Privacidad
DINAMICO