Acordes de Guitarra » L »la Ley » Krazyworld (unplugged) (Tab)

Krazyworld (unplugged)
la Ley

Letras, Notas, Punteos, Tablaturas y Acordes de Guitarra (Tabs & Chords)

  • Letra y Acordes
    Am  C  F  Am  G
    
    Am
    Un Monde Qui Change De Peau
    Et Tous Ces Langages
    C
    Qui Reprend Conscience 
    De La Folie Du Pouvoir
    F
    Un Monde Sans Frontière
                       Am       G
    Un Soleil Qui Grandit Un Krazyworld
    
    Am
    Une Nouvelle Zone Sans Loi
    Et Sans Punition
    C
    Qui Défend Le Droit De La
                 F
    Simple Vie Mon Avis
    
  • Tablatura
    |-------------------------------------------------------------------------|
    
      *--------------*
      |  h:hammer on |
      |  /:slide     |
      *--------------*  
    
     *Intro y versos
    
      0:00       Am                    C                      F
    E|---0---0-0---0---0-0-----0---0-0---0---0-0-----1---1-1---1---1-1-|
    B|---1---1-1---1---1-1-----1---1-1---1---1-1-----1---1-1---1---1-1-|
    G|-2---2-----2---2-------0---0-----0---0---------------------------|
    D|---------------------------------------------3---3-----3---3-----|
    A|-----------------------------------------------------------------|
    E|-----------------------------------------------------------------|
            Am        G
    E|---0---0-0---3---3-3-|
    B|---1---1-1---3---3-3-|
    G|-2---2-----0---0-----|
    
  • Tablatura
    Am  C  F  Am  G
    
    Am
    Un Monde Qui Change De Peau
    Et Tous Ces Langages
    C
    Qui Reprend Conscience 
    De La Folie Du Pouvoir
    F
    Un Monde Sans Frontière
                                 Am           G
    Un Soleil Qui Grandit Un Krazyworld
    
    Am
    Une Nouvelle Zone Sans Loi
    Et Sans Punition
    C
    Qui Défend Le Droit De La
                       F
    Simple Vie Mon Avis
    
  • +
    ¡Colabora con nosotros!
    Envíanos tu versión de esta canción

Letra de Krazyworld (unplugged)
Un Monde Qui Change De Peau
Et Tous Ces Langages
Qui Reprend Conscience
De La Folie Du Pouvoir
Un Monde Sans Frontière
Un Soleil Qui Grandit Un Krazyworld
Une Nouvelle Zone Sans Loi
Et Sans Punition
Qui Défend Le Droit De La
Simple Vie Mon Avis
Est Que Le Ciel Descende Officiellement
Je Rêve De Vivre Un Krazyworld
Je Rêve Pouvoir Marcher
Tout Nu Dans La Grande Avenue
Je Rêve De Vivre Un Krazyworld
Je Rêve Pouvoir Marcher
Tout Nu Dans La Grande Avenue
Un Armement Fondu Pour Faire Une Statue
Qui Regarde Le Ciel Avec Une Larme De Sang
Une Fôret Qui Grandit / Un Homme En Synphonie
Un Krazyworld
La Haine De Tous Nos Coeurs S'en Vole
La Haine Qui Brûle Toute Seule Sans Aucune Chance
De Trouver Un Logement Dans Nos Âmes
Je Rêve De Vivre Un Krazyworld
Je Rêve Pouvoir Marcher
Tout Nu Dans La Grande Avenue
Je Rêve De Vivre Un Krazyworld
Je Rêve Pouvoir Marcher
Tout Nu Dans La Grande Avenue
Je Rêve De Vivre Un Krazyworld
Je Rêve Pouvoir Marcher
Tout Nu Dans La Grande Avenue
Je Rêve De Vivre Un Krazyworld
Je Rêve Pouvoir Marcher
Tout Nu Dans La Grande Avenue
(x 2)

[ver todas las canciones]


© LaCuerda.net · Aviso Legal · Privacidad