Acordes de Guitarra » L »la Ley » Eternidad (Tab)

Eternidad
la Ley

Letras, Acordes y Tabs para Guitarra, Bajo y Ukulele

  • Bm         D            E
      Voy acercandome al final
    Bm         D            E
      de un camino existencial, final
    Bm             D          E
      poco es el tiempo y se va
    Bm         D           E
      voy a salir en libertad, total
    
    SOLOx2
    
     E -------------------------------
     B -------------------------------
     G -------------------------------
     D -0/2-2-2---2-----2-2---2-------
     A -------------------------------
     E -0-------0---0-0-----0---------
    
              Bm      D        E
              Gira si Giro de vuelta al camino de
    
  • Bm        A     E         Bm        A     E
    Ahhhahhh ahhhh ahhhh      Ahhhahhh ahhhh ahhhh
    
    Bm         A            E
      Voy acercándome al final
    Bm         A            E
      de un camino existencial, final
    Bm             A          E
      poco es el tiempo y se va
    Bm         A           E
      voy a salir en libertad, total
    
    SOLOx2
    
     E -----------------------
     B -----------------------
     G -----------------------
     D -----------------------
     A --7-7-7-7-7-7----------
     E -0---0-0---0-----------
    
  • |--------------------------|---------------------------|
    |--------------------------|---------------------------|
    |-4--4--4-4-4-4--7--7-7-7-7|-9---9-9-9-9--7h9-9-9--9---|
    |-4--4--4-4-4-4--7--7-7-7-7|-9---9-9-9-9--7h9-9-9--9---|
    |--------------------------|---------------------------|
    |--------------------------|---------------------------|
    
    Verse:
    Acoustic plays this
      Bm          D              E
    and electric this w/chorus or echo effect
    |-2-----------5------------|-0-------------------------|
    |-3-----------5------------|-0-------------------------|
    |-4-----------7------------|-9-------------------------|
    |-4-----------7------------|-9-------------------------|
    |-2-----------5------------|-7-------------------------|
    |--------------------------|-0-------------------------|
    
    Chorus: (Giras y giro, de vuelta al camino...)
      Bm          D              E
    
  • El bajo de esta canción es bien cool. Tiene un solo de
    bajo funky bien apero!
    
    La canción va así:
    
    El intro de la canción es solo guitarra y batería. 
    El bajo entra cuando Beto Comienza a cantar.
    
    RIFF 1:
    
    G |---------------------------------------------------|
    D |-----------------------2--2--2-2--2--2--2-2--------|
    A |-2--2--2-2--5--5--5-5------------------------------|
    E |---------------------------------------------------|
    
    ESTE RIFF SE REPITE DURANTE EL VERSO COMPLETO Y
    LUEGO VA ESTO:
    
    RIFF 2:
    
    G |----9-9---9------9-9-------------------------------|
    D |---------------------------------------------------|
    A |-7------7---7-7------7-----------------------------|
    E |---------------------------------------------------|
        T  P P T P T T  P P T
    
    ESTO SE REPITE 2 VECES DESPUÉS DE TOCAR EL VERSO.
    LOS COROS VAN IGUAL QUE LOS VERSOS.
    
    LA CANCIÓN ES MUY FÁCIL, SOLO HAY QUE TOMARLE EL RITMO 
    Y ESO ES TODO.
  • En el intro, los acordes son : b, D y E
    Y se toca nadamàs punteando una vez b y D.
    Después en el cambio a E , que es el doble
    de tiempo de cada uno de los anteriores,
    se puntea una vez y en el segundo tiempo se 
    Hace el sig. Adorno:
    
    
    G|---------------------------------------|
    D|--------------2--2--0-2--0--2----------|
    A|---------------------------------------|
    E|---------------------------------------|
    
    Después se hace el mismo adorno en los otros 
    dos acordes,con una ligera variación al  final.
    Solo hay que hacerlo un poquito màs ràpido:
    
          b          D             E
    G|-------------|-------------|-------------|----------------|
    D|-------------|-------------|-2-2-0-2-0-2-|2-2-0-2-0-2-0-2-|
    A|-2-2-0-2-0-2-|-5-5-3-5-3-5-|-------------|----------------|
    E|-------------|-------------|-------------|----------------|
     
    
       
    Esto se repite durante toda la rola.
  • +
    ¡Colabora con nosotros!
    Envíanos tu versión de esta canción

Letra de Eternidad
Voy acercandome al final
de un camino existencial, final
poco es el tiempo y se va
voy a salir en libertad, total
SOLOx2
Gira si Giro de vuelta al camino de
vidas vividas al pasar
No necesito vestir mas
no hay pecado original, no hay
la inocencia vuelve a mi
voy caminando sin pisar, flotar
SOLOx1
Gira si Giro de vuelta al camino de
vidas vividas al pasar
Gira si Giro de vuelta al camino de
vidas vividas al pasar
((((yo no se francés, así que no se que es lo que))))
((((dice en esta parte, pero lo canta todo en E(Mi))))
((((y termina con un grito
ooooohhhhhhhhhhhhhhhhhhhhhhhhhhhhh))))
Gira si giro de vuelta al camino
de vidas vividas al pasar




[Eternidad chords][Eternidad cifra]
© LaCuerda.net · aviso legal · privacidad · es · en · pt · contacto