Acordes de Guitarra » L »la Ley » Delirando (unplugged) (Tab)

Delirando (unplugged)
la Ley

Letras, Acordes y Tabs para Guitarra, Bajo y Ukulele

  • E|----------------------------------------------|
    B|----------------------------------------------|
    G|----------------------------------------------|
    D|--------------------------------------0--2----|
    A|-------------0------0---1---0---1-1-----------|
    E|-0---3---0-------3----------------------------|
    
    E|----------------------------------------------|
    B|----------------------------------------------|
    G|----------------------------------------------|
    D|----------------------------------------------|
    A|-------------0------0---1---0---1-1--0--------|
    E|-0---3---0-------3----------------------------|
    
    Guitarra # 2
    E|-------------------------------------------|
    B|-------------------------------------------|
    G|-------------------------------------7-9---|
    D|---------------7-------7--8--7--8-8--------|
    A|--7---10---7-------10----------------------|
    
  • E
    
    E
    Perdóname 
    Voy A Cruzar Un Muro Sin Lamentos Que Sujetar 
    Recuérdame De No Voltear 
    No Quiero Arrepentirme O Petrificar 
    
    E  G  E  G
    
    E              G  A   E                  G  A
    Estoy Llegando Donde Nunca Fui 
    E      G  A   
    Delirando 
    
    E  G A
     
    E
    Despiértame Para Llegar 
    Donde No Hay Referencia De Sociedad 
    
  • |-------------------------------------------------------------------------|
    
    El siguiente punteo se repite muchas veces pero solo en los versos 
    y se hace con 2 guitarras pero de manera diferente
    
    Guitarra # 1
    E|----------------------------------------------|
    B|----------------------------------------------|
    G|----------------------------------------------|
    D|--------------------------------------0--2----|
    A|-------------0------0---1---0---1-1-----------|
    E|-0---3---0-------3----------------------------|
    
    E|----------------------------------------------|
    B|----------------------------------------------|
    G|----------------------------------------------|
    D|----------------------------------------------|
    A|-------------0------0---1---0---1-1--0--------|
    E|-0---3---0-------3----------------------------|
    
    
  • e|---------------------------------------------|
    b|---------------------------------------------|
    g|---------------------------------------------|
    D|---------------------------------------------|
    A|--------------------5^7----------------------|
    E|-0-3-0-5-3~-5^6-5^6-----0-3-0-5-3~-5^6-5^6-5-|
    
    Guitarra 2:
    
    e|---------------------------------------------|
    b|----------------------5----------------------|
    g|--------------------7------------------------|
    D|---5---7-5~-7^8-7^8-------5---7-5~-7^8-7^8-7-|
    A|-7---7------------------7---7----------------|
    E|---------------------------------------------|
    
    Luego de tocar hartas veces lo de
    arriba se tocan estos acordes y
    esta tablatura:
    
    
  • +
    ¡Colabora con nosotros!
    Envíanos tu versión de esta canción

Letra de Delirando (unplugged)
Guitarra # 2
Verso:
perdoname, voy a cruzar un mundo sin lamentos que sujetar
recuerdame, de no voltear no quiero arrepentirme o petrificar
estoy llegando donde nunca fui
delirando nooooooo
Verso:
despiertame, para llegar donde no hay referencias de sociedad
no juzgare, ni violare las leyes que en mi mente destrozare ah ah
todos los dias predican asi te lo digo yo
estoy llegando donde nunca fui
delirando de locura y sensatez
estoy robando el tiempo que perdi
delirando de locura y sensatez
de locura y sensatez
luego de esto se toca el punteo 6 veces seguidas y
todos los dias predican asi te lo digo yo
estoy llegando donde nunca fui
delirando de locura y sensatez
estoy robando el tiempo que perdi
delirando de locura y sensatez
de locura y sensatez
de locura y sensatez
de locura y sensatez
delirando
delirandoooooooooo




[Delirando (unplugged) chords][Delirando (unplugged) cifra]
© LaCuerda.net · aviso legal · privacidad · es · en · pt · contacto