Acordes de Guitarra » J »Juanes » Un día lejano (Tab)

Un día lejano
Juanes

Letras, Notas, Punteos, Tablaturas y Acordes de Guitarra (Tabs & Chords)

  • Letra y Acordes
    G          D          Em        D
    A veces me da, por volver a pensar,
             G                    D
    en esos días que el tiempo borró, 
               Em           D
    y en las huellas que dejó,
    
            C             D         G     Em
    y cada vez que yo me alejo me siento más,
    C          D           G        Em
     que cada vez es mas fuerte el sentimento,
    C              D      G     Em
     de que algun día podrás volver,
    C                    D
      a aceptar nuestro amor,
    
    
    
    A veces me da por correr y escapar,
    
    
  • Tablatura
       G         D       Em         D         G         D          Em            D
    e----------------------------------------|-----------------------------------------------
    B----------------------------------------|-----------------------------------------------
    G-----4/5--4-----------------------------|--4/5-4----------------------------------------
    D------------5/7-----5~-7--7/9~-4~--(4/5)|--------7-7/9----7-4-4/5---5-7-7/9-4~----------
    A----------------------------------------|-----------------------------------------------
    E----------------------------------------|-----------------------------------------------
    
    
    [verso] [NOTA: se escucha bien si primero tocas las cuerdas de bajo A/E y despues las de requinto e/B/G ]
    
       /          // /       // /     // /    // /                 // /         // /        // /
    
       G             D          Em7      D       G                    D            Em          D
     --3-------------2----------3--------2--------------------------------------------------------------
     --3-------------3----------3--------3--------------------------------------------------------------
     --4-------------2----------0--------2--------------------------------------------------------------
     --5-------------4----------2--------4--------------------------------------------------------------
     --5-------------5----------2--------5--------------------------------------------------------------
     --3------------------------0-----------------------------------------------------------------------
    
  • +
    ¡Colabora con nosotros!
    Envíanos tu versión de esta canción

Letra de Un día lejano
A veces me da, por volver a pensar,
en esos días que el tiempo borró,
y en las huellas que dejó,
y cada vez que yo me alejo me siento más,
que cada vez es mas fuerte el sentimento,
de que algun día podrás volver,
a aceptar nuestro amor,
A veces me da por correr y escapar,
por la verdad lo que nunca te dí,
lo que siempre te escondí.
y cada vez que yo me alejo me siento más,
que cada vez es mas fuerte el sentimento,
de que algun día podrás volver,
a aceptar nuestro amor,
Tal veeeeeeeeez, algún día lejano yo quizas
te vuelva a encontraaaaaaaaaar
Tal veeeeeeeeez, algún día lejano yo quizas
te pueda olvidaaaaaaaaaaar,
te pueda olvidaaaaaaaaaaar,
te pueda olvidaaaaaaaaaaar....... amor..
y cada vez que yo me alejo me siento más,
que cada vez es mas fuerte el sentimento,
de que algun día podrás volver,
a aceptar nuestro amor,
Tal veeeeeeeeez, algún día lejano yo quizas
te vuelva a encontraaaaaaaaaar
Tal veeeeeeeeez, algún día lejano yo quizas
te pueda olvidaaaaaaaaaaar,
te pueda olvidaaaaaaaaaaar,
te pueda olvidaaaaaaaaaaar....... amor..

Videos de Un día lejano
[ver más videos]

[ver todas las canciones]


© LaCuerda.net · Aviso Legal · Privacidad